Guitar Tabs
song title    band name

Join Us Today!

Don't strum alone...
be a part of the largest online Christian music community. Browse thousands of guitar tabs and chat w/ musicians like yourself.


It's Free!

This tab has been rated a 4.67 out of 5 for accuracy. (3 votes)Sorry, but you must be logged in to rate this tab.
Click here to log-in, or you can click here to register.
(Registration is free)

All songs owned by corresponding publishing company. If you make copies of any song on this website, be sure to report your usage to CCLI.
Submitted by: tennisguy224

Desire 
Jeremy Camp

INTRO (also works for verse, which will be repeated I believe 8 times and 
then into chorus, which i'm not sure on)
e|--------------------------------------------------------------------------|
B|-0---0---0---0---0---0---0---0--------------------------------------------|
G|--------------------------------------------------------------------------|
D|-9------------------------------------------------------------------------| 
A|---7---7---7---7---7---7---7---7------------------------------------------|
E|--------------------------------------------------------------------------|

Comments about this tab

dReAmIn4EvEr - 2005-02-14

close but its like this

e|--------------------------------------------------------------------------|
B|-0---0---0---0---0---0---0---0--------------------------------------------|
G|--------------------------------------------------------------------------|
D|-9---9---9---9---9---9---9---9-------------------------------------------|
A|---7---7---7---7---7---7---7---7------------------------------------------|
E|--------------------------------------------------------------------------|


sTaLkErJaNe08 - 2005-03-13

Very close both of you lol... try this version


e|-----------------------------------
B|--0---0---0---0---0---0---0---0----
G|-----------------------------------
D|----2---2---2---2---2---2---2---2--
A|--0-------2-------4-------2--------
E|-----------------------------------

Have fun! :)


matt j t - 2005-03-20

Hey guys,

There's a song on this CD that I would love to play

It's called "Lay Down My Pride"

I would be great if someone could figure this song out,

because i've tried (and failed).


GodsCreation - 2005-11-30

thats the correct one sTaLkErJaNe08..


hpy-monkey1213 - 2005-12-13

Could some body please help me here. I really do like this song and im learning to play tabs on this site but i STILL have no clue what the 0 means on the B string help please.....

hpymonkey1213


idwysfn - 2005-12-29

Hey Hpymonkey1213, the 0 on the b string means to play that string open, without holding the string down on any fret.

Hope that helps!


jeremycampfan05 - 2006-01-16

ok thanks that helps me alot and im just now figuring that out (found it out a couple days ago) - but thanks anyways-cya


Frank Perpete - 2006-01-27

Does anybody know what the chords are for "Desire" by Jeremy Camp

frank.perpete@genmills.com


xmyopinions - 2006-01-27

Hey, I have no idea how to read tab. Could someone please help?!
Thanks.


edgeworship - 2006-03-02

Hi,
I am new to thins whole thing, i just took over our youth groups worship team and i would like to preform this song.....Dose anyone know of another website or another place where i can get the cords to this song or anyother song??? If you could help me that would be GREAT!!!!!!!! Thank you & God Bless....


onehappyheart - 2006-09-30

I am totally blessed by this song. It is in the key of E. The intro picking and verses begin with A2, B, C#m, to B again. The chorus is the same cycle beginning with E, B, C#m , B, A2, B to A2 or E depending on where you are in the song. No capo needed. I have never tabbed or posted chords before, when I have time I may post more specifics. Now if I could only sing like Jeremy Camp. This B is played 004420, slide it up 2 frets for C#m. Try it, you'll like it.


Add a comment/correction

Complimentary Christian Ringtones
Dadamobile and CGR have teamed up to bring your favorite Christian artists right to your phone. Sign up today and get 10 complementary ringtones!
Tab Country
Did you know CGR has a sister site w/ country guitar tabs? Well we do! Its called Tab Country. It has a great archive with a lot of country tabs.
Rockin Tabs
Are you looking for a site that has rock guitar tabs? Then Rockintabs.com is the place for you. It is a budding site with many rock guitar tabs. Submit your tab today.
Tab Gallery
Tab Gallery has a compilation of christian, rock, and country tabs all in one place. Come visit us.