Guitar Tabs
song title    band name

Join Us Today!

Don't strum alone...
be a part of the largest online Christian music community. Browse thousands of guitar tabs and chat w/ musicians like yourself.


It's Free!

This tab has been rated a 4.50 out of 5 for accuracy. (4 votes)Sorry, but you must be logged in to rate this tab.
Click here to log-in, or you can click here to register.
(Registration is free)

All songs owned by corresponding publishing company. If you make copies of any song on this website, be sure to report your usage to CCLI.
Submitted by: PunkRokGitarist

Artist:FM Static
Tuning:EADGBe
Written by:FM Static

The whole song uses three chords in power chord form. Bb     F     G
 double  -- means rest half a beat,           e      ---    ---   ---
 listen to the song to get the beat           B      ---    ---   ---
 if you can't tell by the spaces.             G      -3-    ---   ---
                                              D      -3-    -3-   -5-
                                              A      -1-    -3-   -5-
                                              E      ---    -1-   -3-


Intro:    (medium distortion)

e   ------------------------
B   ------------------------
G   --3-3---3--------------- 
D   --3-3-3-1-3-5--5--5-5-3-
A   --1-1-3-1-3-5--3--3-3-3-
E   ------1---1-3--3--3-3-1- X4



Verse 1, This is the last day... (palm muted)
e   ---------------------------------
B   ---------------------------------
G   -3-3-3-3-3-3-3-3-----------------
D   -3-3-3-3-3-3-3-3-5-5-5-5-3-3-3-3-
A   -1-1-1-1-1-1-1-1-5-5-5-5-3-3-3-3-
E   -----------------1-1-1-1-1-1-1-1- X4

Between verse 1 and 2  (medium distortion)

e   ------------------------
B   ------------------------
G   --3-3---3--------------- 
D   --3-3-3-1-3-5--5--5-5-3-
A   --1-1-3-1-3-5--3--3-3-3-
E   ------1---1-3--3--3-3-1- X2

Verse 2, I gotta run now...
                                       forth time goes like this:
e   ---------------------------------   | e   -------------------
B   ---------------------------------   | B   ------------------- 
G   -3-3-3-3-3-3-3-3-----------------   | G   -3-3-3-3-3-3-3-3---   
D   -3-3-3-3-3-3-3-3-5-5-5-5-3-3-3-3-   | D   -3-3-3-3-3-3-3-3-5- 
A   -1-1-1-1-1-1-1-1-5-5-5-5-3-3-3-3-   | A   -1-1-1-1-1-1-1-1-5-  
E   -----------------1-1-1-1-1-1-1-1- X4| E   -----------------1-

Chorus, Running through the highschool hallways... 
(listen to song for rythme)

e   ---------------------------------
B   ---------------------------------
G   -3-3-3-3-------------------------
D   -3-3-3-3-3-3-3-3-5-5-5-5-3-3-3-3-
A   -1-1-1-1-3-3-3-3-5-5-5-5-3-3-3-3-
E   ---------1-1-1-1-1-1-1-1-1-1-1-1- X2


Between Chorus and bridge

e   ------------------------
B   ------------------------
G   --3-3---3--------------- 
D   --3-3-3-1-3-5--5--5-5-3-
A   --1-1-3-1-3-5--3--3-3-3-
E   ------1---1-3--3--3-3-1- X2

Bridge, Now we all meet up... guitar cuts out till 3rd measure and plays this

e   ----------------------
B   ----------------------
G   ----------------------
D   ---------------------- 
A   -5-5---5--------------
E   -----6---6-3-3--3-3-1- X2

Chorus 

e   ---------------------------------
B   ---------------------------------
G   -3-3-3-3-------------------------
D   -3-3-3-3-3-3-3-3-5-5-5-5-3-3-3-3-
A   -1-1-1-1-3-3-3-3-5-5-5-5-3-3-3-3-
E   ---------1-1-1-1-1-1-1-1-1-1-1-1- untill the end

during the last Chorus the second guitar plays this close to the end

e   -------------18---------------------18----------
B   ------------------------------------------------
G   ------------------------------------------------
D   ------------------------------------------------
A   -17-18-17------18-17-18-17-18-17-------17-18-17-
E   ----------18---------------------18------------- X3

then it ends with this while the other guitar is still playing the chorus
e   -18-17-15-
B   ----------18-16-15^bend-15-------
G   ---------------------------17-15-
D   ---------------------------------
A   ---------------------------------
E   ---------------------------------

Hope this helps and leave any corrections or comments!

Comments about this tab

punkrawker0427 - 2005-02-19

Dude you rock... I've been waiting 4 this 4 a LONG time. Keep it up.
-Desh-


PunkRokGitarist - 2005-02-22

no problem, its my first tab and i love the song so i thought i would put it up since no one had done it already


rockin_4_Christ - 2005-05-13

awesome job


Peteyb - 2005-06-12

i think the 155 is actually a G chord...which is 355...great tab though.
God Bless!
Peteyb


Surferguitarkid - 2006-04-30

i think the verse is more like this:
G-33333333----------------------
D-33333333-5555555-3------------
A-11111111-5555555-3------------
E----------3333333-1------------

then this is the chorus:
G-3333--------------------------
D-3333-3333-5555-3333-----------
A-1111-3333-5555-3333-----------
E------1111-3333-1111-----------

otherwise i thinks its good


arcteryx - 2006-09-05

During the second half of each chorus there is a riff played:

e--------6------6---
b-------6-6----6-6--
g------7----7h8----- x2

and the ending goes like this:

e---------------18--------
b-----15h16-15------15----
g-------------15--15--15-- x6

then

e-----18-17-15-----------------------
b-------------18-16-15-15b-18-b15----
g--------------------------------15--


arcteryx - 2006-09-05

The verse goes:

g-----333333333-----------
d-----333333333-5555-333--
a-----111111111-5555-333--
E---------------3333-111--

(9 strums on the Bb, 4 on the A, and 3 on the F)


Add a comment/correction

Complimentary Christian Ringtones
Dadamobile and CGR have teamed up to bring your favorite Christian artists right to your phone. Sign up today and get 10 complementary ringtones!
Tab Country
Did you know CGR has a sister site w/ country guitar tabs? Well we do! Its called Tab Country. It has a great archive with a lot of country tabs.
Rockin Tabs
Are you looking for a site that has rock guitar tabs? Then Rockintabs.com is the place for you. It is a budding site with many rock guitar tabs. Submit your tab today.
Tab Gallery
Tab Gallery has a compilation of christian, rock, and country tabs all in one place. Come visit us.