Guitar Tabs
song title    band name

Join Us Today!

Don't strum alone...
be a part of the largest online Christian music community. Browse thousands of guitar tabs and chat w/ musicians like yourself.


It's Free!

This tab has been rated a 4.17 out of 5 for accuracy. (6 votes)Sorry, but you must be logged in to rate this tab.
Click here to log-in, or you can click here to register.
(Registration is free)

All songs owned by corresponding publishing company. If you make copies of any song on this website, be sure to report your usage to CCLI.
Submitted by: Timberwolf

Song:Hyptnotized
Written by:Pillar
Tuning:CGCFAD
Tabbed by:Nathan N.
Intro
-------------------------------------------------------
--------------0-------0----0---------------------------
-----2------0---0---0---3-3-3------2------0-------0-3--
---0--00-3--------3-----1--------0--00-3----0---0---1--
----------------------------------------------3--------
0------------------------------0-----------------------

Verse x3
---------------------------------------------------------------------------
--------------------------------------------------------------------11-----
------22-----00----------00-----00----------22-----00---------00--33--3300-
----00--00-33--3300--------33-33--3300----00--00-33--3300-------33---------
--------------------3333----------------------------------3333-------------
00-------------------------------------00----------------------------------

Pre-Chorus x1
---------
15-11-10-
---------
---------
---------
---------

Chorus x2                                  Play this 1st time only
-----------------------------------------|-------------------------
-----------------------------------------|-------------------------
--------------322222232222---------------|--------------7---7\3-33-
-333333-3333--3------3-------------------|--------------x---x\x-xx-
0------0----0-1------1-----0-588888858888|-0-333355---5-5-555\1-11-
0------0----0--------------0-5------5----|-0-3333--33-5---55-------
2nd time
------------------------------------------ You should add this tab
------------------------------------------because I tabbed everything but the
-------------7---7/10-1010----------------bridge,and it's all accurate.
--5---5-5/7--x---x/-x--x-x----------------
------------55-555/-8--8-8-0------0---3-2-
7--7--------5--55----------0--------------

Comments about this tab

ChurchPunk 2 - 2005-02-14

Finally, a tab for Hypnotized! Great work! Now can someone PLEASE do Dirty Little Secret? Please!


Timberwolf - 2005-02-20

I'm tabbing that right now. I just need to finish the solo. But it should be up real soon.


guitarhockeyman - 2005-02-28

is this in standard tuning or what?


Timberwolf - 2005-02-28

Drop C


Timberwolf - 2005-03-15

I'll put the bridge up in a couple days.


swimmer009 - 2005-04-02

this sonds pretty good a couple notes where there note and added but ra its pretty good i have the book though and it not like it well it might sound the same but its not the way the book has it


abercrombie83 - 2005-04-21

can you send me a copy of what the book says i really need a correct tab


riley235 - 2005-07-22

can i just leave my tuning in the standard tuning if i dont wanna play it with the drop c, or will the notes be wrong that way?


drumbum_nzbpt - 2005-08-01

You can play this song in standard tuning but it won't sound like the song on the album. It will just be in a different key.


Schecter_tabber - 2005-11-15

okay the chourus is good en all but the intro is off, he does not go up to the 2nd string just drop that to the third and 4th and it sounds good now will you do the bridge?


Joe Hofner - 2005-12-08

tuning C G C F A D i think it sounds alittle better like this
intro
C----0-7-00-3-5-----5---3-5-
G---------------3-5---1-----
C--0------------------------

i think the verse is the same as intro
just different picking and 1 or 2 changes
i think they pick each one a few times and a little faster

verse
1st time
C----0-7-00-3-5-----5---3-5-
G---------------3-5---1-----
C--0------------------------

2nd time
F------------------------55-3-
C---0-7-00-3-5-----5---3------
G--------------3-5---1--------
C-0---------------------------


Schecter_tabber - 2006-06-01

okay its not in drop c it sonds exactly like them im Db and i'll be coming out with a tab for this song in a couple days maybe so i want a buch of comments on it


killswitch - 2006-07-21

where can i listen to the full track of hypnotized?


Add a comment/correction

Complimentary Christian Ringtones
Dadamobile and CGR have teamed up to bring your favorite Christian artists right to your phone. Sign up today and get 10 complementary ringtones!
Tab Country
Did you know CGR has a sister site w/ country guitar tabs? Well we do! Its called Tab Country. It has a great archive with a lot of country tabs.
Rockin Tabs
Are you looking for a site that has rock guitar tabs? Then Rockintabs.com is the place for you. It is a budding site with many rock guitar tabs. Submit your tab today.
Tab Gallery
Tab Gallery has a compilation of christian, rock, and country tabs all in one place. Come visit us.