Guitar Tabs
song title    band name

Join Us Today!

Don't strum alone...
be a part of the largest online Christian music community. Browse thousands of guitar tabs and chat w/ musicians like yourself.


It's Free!

This tab has been rated a 3.75 out of 5 for accuracy. (4 votes)Sorry, but you must be logged in to rate this tab.
Click here to log-in, or you can click here to register.
(Registration is free)

All songs owned by corresponding publishing company. If you make copies of any song on this website, be sure to report your usage to CCLI.
Submitted by: guitar4him

This song is picked... and im not going to tab out all of
it because its simple chord structure. 

V1 and V2:

F:     1x3211
Fmaj7: xx2211
F6:    xx0211

well, i will tab it out for you. this is the pattern he uses for the verses.

            F                  Fmaj7           F6       Fmaj7      C
E--------1--------------1------------1----------1------------1--------------
B--------1-----1---------------------1----------1----1-----------------1----
G-----2-----2--------2----------0h2----------2-----2-------2--------0-------
D--3--------------3---------0h2-----------0-------------0-------0h2---------
A---------------------------------------------------------------------------
E---------------------------------------------------------------------------

then repeat that... i guess 4 times for each verse.. or however many times
he does it. that very first hammer in the progression.. sometimes he does it,
and sometimes he just plays it a 2. it might be just every other time. the 
second hammer is real fast if you can hear it. And that C is basically just 
that walking chord so its barely there.

THEN that prechorus/chorus thing... goes like this...

        Bb2                           C                       F6
E------------------1---------------------(0h1)-----------1----------1-------
B------------------1------------1---1------1----1--------1---1------1-------
G-------2---2-----------2-----0---0------0----0--------2---2------2------2--
D-----2---2-----2-----2-----------------------------0-----------0------0----
A---1---------1------------3----------3-------------------------------------
E---------------------------------------------------------------------------

then repeat.. and go back to the first one. Oh yeah that (0h1) i put in there
cuz i dont know if he plays it but it sounds good.

play it.. and you'll hear it. Have fun :-)

Comments about this tab

No comments/corrections found. Add your own

Complimentary Christian Ringtones
Dadamobile and CGR have teamed up to bring your favorite Christian artists right to your phone. Sign up today and get 10 complementary ringtones!
Tab Country
Did you know CGR has a sister site w/ country guitar tabs? Well we do! Its called Tab Country. It has a great archive with a lot of country tabs.
Rockin Tabs
Are you looking for a site that has rock guitar tabs? Then Rockintabs.com is the place for you. It is a budding site with many rock guitar tabs. Submit your tab today.
Tab Gallery
Tab Gallery has a compilation of christian, rock, and country tabs all in one place. Come visit us.