Guitar Tabs
song title    band name

Join Us Today!

Don't strum alone...
be a part of the largest online Christian music community. Browse thousands of guitar tabs and chat w/ musicians like yourself.


It's Free!

This tab has been rated a 4.33 out of 5 for accuracy. (3 votes)Sorry, but you must be logged in to rate this tab.
Click here to log-in, or you can click here to register.
(Registration is free)

All songs owned by corresponding publishing company. If you make copies of any song on this website, be sure to report your usage to CCLI.
Submitted by: guitarnerd153

Maintain Conciousness
Relient K
MmHmm

E-----------------------------------------------
B-----------------------------------------------
G-----------------------------------------------
D--1---1---3--3----7---7---9--9---8--8--9-------
A--2---2---4--4----8---8---9--9---9--9--9-------
e-----------------------------------------------

E-----------------------------------------------
B-----------------------------------------------
G-----------------------------------------------
D--1---1---3--3----7---7---8---8----------------
A--2---2---4--4----8---8---9---9----------------
e-----------------------------------------------


E-----------------------------------------------
B-----------------------------------------------
G-----------------------------------------------
D--1---1---3--3----7---7---9--9---8--8--9-------
A--2---2---4--4----8---8---9--9---9--9--9-------
e-----------------------------------------------


E-----------------------------------------------
B-----------------------------------------------
G-----------------------------------------------
D--1---1---3--3----7---7---8---8----------------
A--2---2---4--4----8---8---9---9----------------
e-----------------------------------------------

 7th           9th           12th          7th 
E-1---------  E-1---------  E-1---------  E-1---------
B-1---------  B-1---------  B-1---------  B-1---------
G-1--2------  G-1--2------  G-1--2------  G-1--2------
D-1----4----  D-1----4----  D-1----4----  D-1----4----
A-1----3----  A-1----3----  A-1----3----  A-1----3----
e-1---------  e-1---------  e-1---------  e-1---------

 7th           9th          open E chord   2nd
E-1---------  E-1---------  E-----------  E-1---------
B-1---------  B-1---------  B-----------  B-1---------
G-1--2------  G-1--2------  G----2------  G-1--2------
D-1----4----  D-1----4----  D------4----  D-1----4----
A-1----3----  A-1----3----  A------3----  A-1----3----
e-1---------  e-1---------  e-----------  e-1---------

This is my first tab and i'm positive its 100%

Comments about this tab

rockon3dw - 2005-05-02

wait...so where is the solo??? otherwise good job on the rest! (i could just be reading it wrong or something)


allstar11 - 2005-05-19

i think the 7 and 8 should be 6 and 7 in the intro


AcousticServant - 2005-05-27

i dun get wat the "7th", "9th", "12th", etc means...


Choysauce - 2005-06-13

those are the frets that the first finger are on, (the index that is) for the bar chords


dizzydaisy - 2005-08-06

could u do one in paino thx


sportsboi - 2006-04-08

lol theres absolutely no piano in this song...also the tuning is in eb so basically its all wrong...even if it was in the right tuning it is still terrible


Add a comment/correction

Complimentary Christian Ringtones
Dadamobile and CGR have teamed up to bring your favorite Christian artists right to your phone. Sign up today and get 10 complementary ringtones!
Tab Country
Did you know CGR has a sister site w/ country guitar tabs? Well we do! Its called Tab Country. It has a great archive with a lot of country tabs.
Rockin Tabs
Are you looking for a site that has rock guitar tabs? Then Rockintabs.com is the place for you. It is a budding site with many rock guitar tabs. Submit your tab today.
Tab Gallery
Tab Gallery has a compilation of christian, rock, and country tabs all in one place. Come visit us.