Guitar Tabs
song title    band name

Join Us Today!

Don't strum alone...
be a part of the largest online Christian music community. Browse thousands of guitar tabs and chat w/ musicians like yourself.


It's Free!

This tab has been rated a 4.18 out of 5 for accuracy. (11 votes)Sorry, but you must be logged in to rate this tab.
Click here to log-in, or you can click here to register.
(Registration is free)

All songs owned by corresponding publishing company. If you make copies of any song on this website, be sure to report your usage to CCLI.
Submitted by: nickmalcolm

Cornerstone
Day of Fire
Tabbed by Nick Malcolm
Fanmail of my tabbing accepted :D

  Verse 1 (Acoustic) 
  A#  G# F#
e-------------
B-11--8--7--8-
G-10--7--6--7-
D-8---6--4--6-
A-8---6--4--6-  x2
D-8---6--4--6-

 2nd  Verse(Lead)
e----4------------6--------------4---
B-6-----6------6-----6----2-4-6-----6

 Prechorus (Distorted Rhythm)
  F# G# D#
e-x--x--x
B-x--x--x
G-x--x--x
D-4--6--1
A-4--6--1
D-4--6--1

 Prechorus 1st time (Lead)
e-6-----6-----6-----6---8-9

 Prechorus 2nd time (Lead)
e-4/6-----4/6-----4/6-----6--
 
 Chorus (Rhythm & Lead with Distortion)
  F# G# A# C#  F# G# A#
e----------------------
B----------------------
G----------------------
D-4--6--8--6--3-4--6--8   --6/8-- (Lead can chuck this in if u want)
A-4--6--8--4--4-4--6--8
D-4--6--8-----3-4--6--8

  Lead up to final chorus (Lead)
G-------------
D-8--5-5-8-10-
A-8--3-4-6-8--
D-8-----------

  Chorus Lead only
B--2--1--2--1-----2--1--2   x2

  Bridge Lead (Acoustic plays Prechorus Chords)
e---------------------------------------   -----
B---------------------------------------   -----
G------------3--3/5--5/6--8--10--11--13-   -6/8-
D-6h8--4--6-----------------------------   -----
A------4--6--1--1/3--3/4--6--8---9---11-   -4/6-   x5
D------4--6-----------------------------   -----

Finish on A#

Comments about this tab

nickmalcolm - 2005-02-06

i have come to the conclusion that the accoustic is actually played
double drop d (DADGBD) and that the F# is actually played
D-4
B-6
G-6
D-4
A-4
D-4

sorry bout that


adamkaboom - 2005-05-04

AWESOME JOB!!!!! I have been trying to figure out this song myself, but since I have been playing guitar since.......well, not very long. Anyway, sounds perfect w/the CD and awesome to sing with. Keep up the good work on tabbing for those of us who can't. :) God Bless


JacksonJS_Rlz - 2005-09-04

Hey Nice work,
I know I'm only 13 but that is awesome work dude. I've looked everywhere for this tab and they've all been inaccurate but this is great!
Thanks and keep up the awesome work!


Add a comment/correction

Complimentary Christian Ringtones
Dadamobile and CGR have teamed up to bring your favorite Christian artists right to your phone. Sign up today and get 10 complementary ringtones!
Tab Country
Did you know CGR has a sister site w/ country guitar tabs? Well we do! Its called Tab Country. It has a great archive with a lot of country tabs.
Rockin Tabs
Are you looking for a site that has rock guitar tabs? Then Rockintabs.com is the place for you. It is a budding site with many rock guitar tabs. Submit your tab today.
Tab Gallery
Tab Gallery has a compilation of christian, rock, and country tabs all in one place. Come visit us.