Guitar Tabs
song title    band name

Join Us Today!

Don't strum alone...
be a part of the largest online Christian music community. Browse thousands of guitar tabs and chat w/ musicians like yourself.


It's Free!

This tab has been rated a 2.00 out of 5 for accuracy. (1 vote)Sorry, but you must be logged in to rate this tab.
Click here to log-in, or you can click here to register.
(Registration is free)

All songs owned by corresponding publishing company. If you make copies of any song on this website, be sure to report your usage to CCLI.
Submitted by: Schweibie

Siberian Sleigh Ride
Trans Siberian Orchestra

Tabbed by Schweibie

Ok I only have the first part of this so here it is...

( h = hammer X = mute B = Bend)

(for the first part of the intro just play jungle bells slowly)

Guitar 1 plays this continuously...
E-----------------------
B-----------------------
G-----------------------
D-----------------------
A-----------------------
E-00--00--00-00-00-00-00
  XX  XX  XX XX XX XX XX

Then for the first part guitar 2 plays:
    h   B
E-12-1414-14-12-10-------------------
B-----------------14-12-10-12-14-12--
G------------------------------------
D----------------------------------12
A------------------------------------
E------------------------------------

        B  B  B                 
E-12-1414-14-14----------------------
B---------------12-10-12-14-12-------
G------------------------------------
D-----------------------------12-----
A------------------------------------
E------------------------------------

Ok thats all I have so far. I will keep working!

Comments about this tab

edgeguitarist05 - 2006-01-12

Doesn't sound right at all, sorry man.

Standard tunning EADGBe

(Intro) clean guitar playing part of jingle bells
(.10)
E----------------|
B----------------|
G-22-22-22-22-22-|
D-22-22-22-22-22-|
A-00-00-00-00-00-|
E----------------|
**************
Repeats a lot
Other guitar, let some feedback, then pick scrape
(.21)
E---------------------------------|
B-5-7-8-7-5-----------------------|
G-----------7-6-4-<6>-4-------4---|
D-----------------------7-5-7---7-|
A---------------------------------|
E---------------------------------|
(.27)
E---------------------------------------------|
B---------------------------------------------|
G-----------------------------------4-------7-|
D-----<5>-----<5>-----<5>-----<5>-7---7-------|
A-5-7-----5-7-----5-7-----5-7-----------5-8---|
E---------------------------------------------|
*** *** *** ***
(.32)
E--------------------------------------------|
B-5-7-8-7-5----------------------------------|
G-----------7-6-4-6-4-------4----------------|
D---------------------7-5-7---<7>-7-7-7!(19--|
A--------------------------------------------|
E--------------------------------------------|

E-----------------------------|
B-----------------------------|
G---------------------------4-|
D-----5-----5-----5-----5-7---|
A-5-7---5-7---5-7---5-7-------|
E-----------------------------|
(.42)
E-------------------------------|
B-------------------------------|
G---4-5-<7>---4-5-<7>---4-5-----|7>
D-7---------7---------7---------|
A-------------------------------|
E-------------------------------|

E-------------------------|
B-------------------------|
G-9-7-5-7-5-4-5-4---4-----|
D-----------------7---7-5-|
A-------------------------|
E-------------------------|

E-------------------------------|
B-------------------------------|
G---4-5-<7>---4-5-<7>---4-5-----|7>
D-7---------7---------7---------|
A-------------------------------|
E-------------------------------|

E-------------------------------------------|
B-------------------------------------------|
G-9-7-5-7-5-4-5-4---4-----6b7r6b7r6b7r6b7r6-|
D-----------------7---7-5-------------------|
A-------------------------------------------|
E-------------------------------------------|
Bunch of bends
(.59)
E-12-14-15-14-12-------------------------------|
B----------------15-14-12-14-12----------12----|
G-------------------------------14-12-14----14-|
D----------------------------------------------|
A----------------------------------------------|
E----------------------------------------------|

E--------------------------------------------------|
B-------14b15-14-----------------------------------|
G----12-14b15-14------<12>--------<12>--------<12--|
D-12-------------12-14----14-12-14----14-12-14-----|
A--------------------------------------------------|
E--------------------------------------------------|

E-------------------------------------------12h15p12-------------|
B----------------12-------------------12h15----------15p12-------|
G----------12-14----14-------12h14h15----------------------15p14-|
D-14-12-14-------------12h14-------------------------------------|
A----------------------------------------------------------------|
E----------------------------------------------------------------|
(1.10)
E-12-14-15-14-12-------------------------------|
B----------------15-14-12-14-12----------12----|
G-------------------------------14-12-14----14-|
D----------------------------------------------|
A----------------------------------------------|
E----------------------------------------------|


There is more, but see if you can go off of that.


Add a comment/correction

Complimentary Christian Ringtones
Dadamobile and CGR have teamed up to bring your favorite Christian artists right to your phone. Sign up today and get 10 complementary ringtones!
Tab Country
Did you know CGR has a sister site w/ country guitar tabs? Well we do! Its called Tab Country. It has a great archive with a lot of country tabs.
Rockin Tabs
Are you looking for a site that has rock guitar tabs? Then Rockintabs.com is the place for you. It is a budding site with many rock guitar tabs. Submit your tab today.
Tab Gallery
Tab Gallery has a compilation of christian, rock, and country tabs all in one place. Come visit us.