Guitar Tabs
song title    band name

Join Us Today!

Don't strum alone...
be a part of the largest online Christian music community. Browse thousands of guitar tabs and chat w/ musicians like yourself.


It's Free!

This tab has been rated a 5.00 out of 5 for accuracy. (6 votes)Sorry, but you must be logged in to rate this tab.
Click here to log-in, or you can click here to register.
(Registration is free)

All songs owned by corresponding publishing company. If you make copies of any song on this website, be sure to report your usage to CCLI.
Submitted by: eddieg

Numb
Tait

Intro/Verse
C|2-2---2---2-2---2-0-2-3-2-0-2---|
G|2-2---2---2-2---2-0-2-3-2-0-2---|  x3\
C|2-2---2---2-2---2-0-2-3-2-0-2---|     \
                                         -> x4
C|5-5---5---5-5---3-3---x-x-x-x-x-|     /
G|5-5---5---5-5---3-3---x-x-x-x-x-|  x1/
C|5-5---5---5-5---3-3---x-x-x-x-x-|

Pre-Chorus
C|7-------------------------------|
G|7-------------------------------|
C|7-------------------------------|

C|10------------------------------|
G|10------------------------------|
C|10------------------------------|

C|7-------------------------------|
G|7-------------------------------|
C|7-------------------------------|

C|10--------------12--------------|
G|10--------------12--------------|
C|10--------------12--------------|

Chorus
C|2-------2---2-2-7-------7---7-7-|    \
G|2-------2---2-2-7-------7---7-7-|     \
C|2-------2---2-2-7-------7---7-7-|      \
                                          \
C|2-------2---2-2-10---------10-10-10-10-| \
G|2-------2---2-2-10---------10-10-10-10-|  \
C|2-------2---2-2-10---------10-10-10-10-|   \
                                              --> x2
C|2-------2---2-2-7-------7---7-7-|          /  
G|2-------2---2-2-7-------7---7-7-|         /
C|2-------2---2-2-7-------7---7-7-|        /
                                          /
C|5-------5---5-5-3-------3-3-3-3-|      /
G|5-------5---5-5-3-------3-3-3-3-|     /
C|5-------5---5-5-3-------3-3-3-3-|    /

Guitar 2 During Chorus After The Bridge
D|4-------4-------4-------4---5---|
A|----5-------5-------5-----------|
F|--------------------------------|

D|4-------4-------3-------4---5---|
A|----5-------5-------5-----------|
F|--------------------------------|

D|4-------4-------4-------4---5---|
A|----5-------5-------5-----------|
F|--------------------------------|

D|7-------7-------7-------7-------|
A|----8--------8------8-------8---|
F|--------------------------------|

Order
Intro/Verse x4
Pre-Chorus
Chorus x2
Intro/Verse x4
Pre-Chorus
Chorus x2
Bridge (haven't figured it all out yet so if you know tell me)
Chorus with Guitar 2 part x1
Chorus without Guitar 2 part x1
Chorus with Guitar 2 part x1
Intro/Verse (not sure how many times b/c the song isn't complete on my computer)
Outro

Outro
C|5-5---5---5-5---3-3-----|
G|5-5---5---5-5---3-3-----|
C|5-5---5---5-5---3-3-----|

That's all! If you find any errors please note.

Comments about this tab

guitar man4 - 2005-02-10

I submiteed the other numb tab. you were right. it is pretty far off and it's in drop c not drop d. your tab sounds much closer. anyways, after played your tab I remembered another song that sounded similar: Reconnecting. You can play it in drop c too. I tabbed that song out and it should be posted on here soon.


Abnormwarm - 2005-03-21

hey, it looks great but i dont konw how to tune in Drop C...could you post what the strings are supposed to be tuned to?
Is there an aesyt way how to do it? Like useing the D string when you tune to Drop D?


joellaw44 - 2005-05-07

Drop C= Drop D, Tune down 1 step.
C G C F A D


JESUSFReaK301 - 2006-01-06

You when you tune a guitar to itself, to tune to drop d, you tune
A-0
E-7
What is drop
A-0
E-6


Add a comment/correction

Complimentary Christian Ringtones
Dadamobile and CGR have teamed up to bring your favorite Christian artists right to your phone. Sign up today and get 10 complementary ringtones!
Tab Country
Did you know CGR has a sister site w/ country guitar tabs? Well we do! Its called Tab Country. It has a great archive with a lot of country tabs.
Rockin Tabs
Are you looking for a site that has rock guitar tabs? Then Rockintabs.com is the place for you. It is a budding site with many rock guitar tabs. Submit your tab today.
Tab Gallery
Tab Gallery has a compilation of christian, rock, and country tabs all in one place. Come visit us.