Guitar Tabs
song title    band name

Join Us Today!

Don't strum alone...
be a part of the largest online Christian music community. Browse thousands of guitar tabs and chat w/ musicians like yourself.


It's Free!

This tab has been rated a 5.00 out of 5 for accuracy. (2 votes)Sorry, but you must be logged in to rate this tab.
Click here to log-in, or you can click here to register.
(Registration is free)

All songs owned by corresponding publishing company. If you make copies of any song on this website, be sure to report your usage to CCLI.
Submitted by: GuitaristSeth

-Number One Gun-
-Today is Described-
Tabbed by:Seth

[intro/part of verse]
|-3-------3-------2--3--2------------0--------0--------2--3--2------------
|-3---3-------3---3-------3-----3----3----3-------3----3-------3-----3----
|-0-0---0---0---0-2-----------0---0--0--0---0---0---0--2-----------0---0--
|-2---------------0------------------2-----------------0------------------   
|-3-------------------------3--------3---------------------------3--------
|-------------------------------------------------------------------------

next part
    Strum each one in that order..you gotta get the timing right...
3   2   0   2
3   3   3   3 
0   2   0   2
2   2   2   0
3   x   3

Intro/Verse picks up a little again...and then this
 Guitar 1
|---------------------------------------------
|---------------------------------------------
|-5-------7----4-----5-------7-7-7-7----------   do that a few times
|-5-------7----4-----5-------7-7-7-7-9-9-9-9--
|-3-------5----2-----3-------5-5-5-5-9-9-9-9--
|------------------------------------7-7-7-7--  

Guitar 2
|-15-14----17--
|-------15-----
|--------------  repeat that while Guitar 1 is playing
|--------------
|--------------
|--------------

Comments about this tab

GuitaristSeth - 2005-03-17

I found another way of playing it that I think sounds better but you have to have your guitar tuned to DA#DFAD...i'll post it sometime.


GOD's_musician4 - 2005-09-08

I have just discovered Number One Gun and i love em, they are great, good song, great tab, good job man


zloppy - 2005-09-29

good job im listening to the song right now and it's about to finish ... gotta listen again. good tab , but does any one know where to get a golden smile chords from?


zloppy - 2005-10-01

im board today


zloppy - 2005-10-01

i wants whent to hawii and sawa surf board dude who looked like homestar runner. he was awsome . he did backflips and nollies. he even said i can play the guitar. then he told me about christianguitar.org. i came here and was amazed. but too bad thats not true. i really found out about it fom a guy at my church named Arron Adams to bad ive never seen hawii. but i did see strong sad sitting on a bench sad and depressed. i think some of those sentences are runon sentences because im board right now. but good tab. some one get me out of this box. im like stuck in the computer. ohh well.


GOD's_musician4 - 2005-10-10

that really didnt have anything to do with the tab, did it?


Add a comment/correction

Complimentary Christian Ringtones
Dadamobile and CGR have teamed up to bring your favorite Christian artists right to your phone. Sign up today and get 10 complementary ringtones!
Tab Country
Did you know CGR has a sister site w/ country guitar tabs? Well we do! Its called Tab Country. It has a great archive with a lot of country tabs.
Rockin Tabs
Are you looking for a site that has rock guitar tabs? Then Rockintabs.com is the place for you. It is a budding site with many rock guitar tabs. Submit your tab today.
Tab Gallery
Tab Gallery has a compilation of christian, rock, and country tabs all in one place. Come visit us.