Guitar Tabs
song title    band name

Join Us Today!

Don't strum alone...
be a part of the largest online Christian music community. Browse thousands of guitar tabs and chat w/ musicians like yourself.


It's Free!

This tab has been rated a 4.50 out of 5 for accuracy. (2 votes)Sorry, but you must be logged in to rate this tab.
Click here to log-in, or you can click here to register.
(Registration is free)

All songs owned by corresponding publishing company. If you make copies of any song on this website, be sure to report your usage to CCLI.
Submitted by: deadpoeticsk8er

Emery
Fractions
Tabbed By: deadpoeticsk8er

Tuning: Drop Db (Db Ab Db Gb Bb Eb)
Drop Db.

Synth intro
Eb|-------------2---5---3---|
Bb|-0---2---3---------------|
Gb|-------------------------|
Db|-------------------------|
Ab|-------------------------|
Db|-------------------------|

Verse (Your hair and face...)
Eb|-12-------------------12-------12-|
Bb|-----14-141514-14-15-----14-15----|
Gb|----------------------------------|
Db|----------------------------------|
Ab|----------------------------------|
Db|----------------------------------|

Gtr. 2
Eb|-------------------------|
Bb|-------------------------|
Gb|-7777-6666-0-4646-0-4646-|
Db|-xxxx-xxxx---------------|
Ab|-5555-4444---------------|
Db|-------------------------|

During the quiet part. (People steal from you...)
Eb|------------|
Bb|-0---(0000)-|
Gb|------------|
Db|------------|
Ab|------------|
Db|------------|

Chorus 1 (It's good to see you...)
Eb|--------------------|
Bb|--------------------|
Gb|-4444-7777----------|
Db|-4444-7777-77777777-|
Ab|-2222-5555-77777777-|
Db|-2222------77777777-|

Gtr. 2 plays the first two chords. Then goes into this.
Eb|----------|
Bb|----------|
Gb|-14-12-11-|
Db|-x--x--x--|
Ab|-12-10-9--|
Db|----------|

Gtr. 2 also plays this during the chorus.
Eb|----------------------------------------------|
Bb|----------------------------------------------|
Gb|-11111111-12-12-12-12-14-14-14-14-14-14-14-14-|
Db|-x-x-x-x--x--x--x--x--x--x--x--x--x--x--x--x--|
Ab|-9-9-9-9--10-10-10-10-12-12-12-12-12-12-12-12-|
Db|----------------------------------------------|

Bridge (Can't decide...)
Eb|-------------------------------|
Bb|-------------------------------|
Gb|-------------------------------|
Db|-55555---55555---77777---77777-|
Ab|-55555---55555---77777---77777-|
Db|-55555---55555---77777---77777-|

At the end of the bridge
Eb|----------|
Bb|----------|
Gb|-99999999-|
Db|-xxxxxxxx-|
Ab|-77777777-|
Db|----------|

Chorus 2 (I wanted to mean...)
Eb|---------------------|
Bb|---------------------|
Gb|-7777----------------|
Db|-7777-2222-5555-7777-|
Ab|-5555-2222-5555-7777-|
Db|------2222-5555-7777-|

Gtr. 2 plays this during the (777xxx) chord.
Eb|-----------|
Bb|-----------|
Gb|-12-7-4-12-|
Db|-x--x-x-x--|
Ab|-10-5-2-10-|
Db|-----------|

End of chorus 2
Eb|--------|
Bb|--------|
Gb|--------|
Db|-55--77-|
Ab|-55--77-|
Db|-55--77-|

Go back to the verse.

Then play chorus 1 again. There's a little variation in it.
Eb|-------------|
Bb|-------------|
Gb|-77-77-77-77-|
Db|-77-77-77-77-|
Ab|-55-55-55-55-|
Db|-------------|

Bridge 2 (We watched the tide roll in...)
Eb|--------------------------------------|
Bb|--------------------------------------|
Gb|--------------------------------------|
Db|-(55555555-77777777-9999999999999999)-|
Ab|-(55555555-77777777-9999999999999999)-|
Db|-(55555555-77777777-9999999999999999)-|

Bridge 3 (These words with no reply's)
Eb|---------------------------------|
Bb|---------------------------------|
Gb|---------------------------------|
Db|-55---55---77---77---22---22---7-|
Ab|-55---55---77---77---22---22---5-|
Db|-55---55---77---77---22---22---5-|

Play Chorus 2 again.

Then the ending.
Eb|-----------------|
Bb|-----------------|
Gb|-----------------|
Db|-999-97-75-52-22-|
Ab|-999-97-75-52-22-|
Db|-999-97-75-52-22-|

Gtr. 2
Eb|----------------------|
Bb|-7-5-3--3-2--5-3--3-2-|
Gb|----------------------|
Db|----------------------|
Ab|----------------------|
Db|----------------------|

Gtr. 2 cont.
Eb|----------------------12121212-|
Bb|-2222\1414141415151515---------|
Gb|-------------------------------|
Db|-------------------------------|
Ab|-------------------------------|
Db|-------------------------------|

It's a great song. This should be pretty close. 
My friends helped me out with this.
please set comment if you see an error.

Comments about this tab

Lancer748Guitar - 2005-02-05

The Intro is all wrong so i sat here and figured it out.


e----------------------------
b-h13-h14-14-14-13-13-13-14--
g--------------------------13


e--------------------------16
b-h13-h14-14-14-13-13-13-14--
g----------------------------

the rest seems right but it was the into that needed to be fix it was driving me crazy haha well good luck to everyone on this song.


deadpoeticsk8er - 2005-02-08

Thanks, i had a little trouble with that. Emery rocks!


wild_rice07 - 2005-06-13

i love this song! i'm so glad that some1 tabed it. it is really fun to play.


zvez - 2005-07-12

emery rocks! \m/^^\m/


ImissDCtalk34 - 2005-12-02

I would prefer to play this in drop D. I don't like the flat tunings. I don't know why. They are just annoying I guess, but I looks like you did a good jorb. And yes I did mean to spell it that way. lol


Add a comment/correction

Complimentary Christian Ringtones
Dadamobile and CGR have teamed up to bring your favorite Christian artists right to your phone. Sign up today and get 10 complementary ringtones!
Tab Country
Did you know CGR has a sister site w/ country guitar tabs? Well we do! Its called Tab Country. It has a great archive with a lot of country tabs.
Rockin Tabs
Are you looking for a site that has rock guitar tabs? Then Rockintabs.com is the place for you. It is a budding site with many rock guitar tabs. Submit your tab today.
Tab Gallery
Tab Gallery has a compilation of christian, rock, and country tabs all in one place. Come visit us.