Guitar Tabs
song title    band name

Join Us Today!

Don't strum alone...
be a part of the largest online Christian music community. Browse thousands of guitar tabs and chat w/ musicians like yourself.


It's Free!

This tab has not yet been rated for accuracy.Sorry, but you must be logged in to rate this tab.
Click here to log-in, or you can click here to register.
(Registration is free)

All songs owned by corresponding publishing company. If you make copies of any song on this website, be sure to report your usage to CCLI.
Submitted by: bob k johnson

Song:Something to believe in
Tuning:eadgbe
Artist:FM Static
Written by:FM Static

intro

  D5                                    G5 A5    D I made this chord up.                 
e------------------------------------------------------------------------
b-------------------------------------------------7-7-7-7-7---7-7-7-7-7--
g--7-7-7-7-7---7-7-7-7-7---7-7-7-7-7--------------x-x-x-x-x---x-x-x-x-x--
d--7-7-7-7-7---7-7-7-7-7---7-7-7-7-7-----5--7-----7-7-7-7-7---7-7-7-7-7--
a--5-5-5-5-5---5-5-5-5-5---5-5-5-5-5-----5--7-----5-5-5-5-5---5-5-5-5-5--
e----------------------------------------3--5----------------------------


   D5           G5 A5
e---------------------
b--7-7-7-7-7-----------
g--x-x-x-x-x-----------
d--7-7-7-7-7-----5--7--
a--5-5-5-5-5-----5--7--
e----------------3--5--

verse

  G5    A5    D5                        

e---------------------
b---------------------
g--------------7------
d--5-----7-----7------
a--5-----7-----5------
e--3-----5------------


                                                       
e-------
b-------
g---7---
d---7---
a---5---
e------- 


pre-chorus 
 B5                     F#5             G5                 A5
e------------------------------------------------------------------------------
b------------------------------------------------------------------------------
g--4-----4------4-----4--------------------------------------------------------
d--4-----4------4-----4----4---4---4---4--5----5----5----5----7----7----7----7-
a--2-----2------2-----2----4---4---4---4--5----5----5----5----7----7----7----7-
e--------------------------2---2---2---2--3----3----3----3----5----5----5----5-


chorus
 

    D5              A5              G5                    A5   
e---------------------------------------------------------------------------
b---------------------------------------------------------------------------
g---7--7--7-7-7-7-----------------------------------------------------------
d---7--7--7-7-7-7----7--7--7-7-7-7---5-- 5---5--5--5--5----7--7--7-7-7-7----
a---5--5--5-5-5-5----7--7--7-7-7-7---5---5---5--5--5--5----7--7--7-7-7-7----
e--------------------5--5--5-5-5-5---3---3---3--3--3--3----5--5--5-5-5-5----

   D5              A5                 f#5                   A5
e------------------------------------------------------------------------------
b------------------------------------------------------------------------------
g---7--7--7-7-7-7--------------------------------------------------------------
d---7--7--7-7-7-7---7--7--7-7-7-7------4--4--4-4-4-4--------5--5--5-5-5-5------
a---5--5--5-5-5-5---7--7--7-7-7-7------4--4--4-4-4-4--------5--5--5-5-5-5------
e-------------------5--5--5-5-5-5------2--2--2-2-2-2--------3--3--3-3-3-3------

    D5                     A5           D5                       G5
e------------------------------------------------------------------------------
b------------------------------------------------------------------------------
g----7-7---------------------------------7-7-----------------------------------
d----7-7---------------------------------7-7----------------------5---5---5--5-
a----5-5--------------------7-7----------5-5----------------------5---5---5--5-
e---------------------------5-5-----------------------------------3---3---3--3-

    D5             F#5                   B5                            G5   
e-----------------------------------------------------------------------------
b-----------------------------------------------------------------------------
g----7---7---7---7------------------------4-----4-----4-----4-----------------
d----7---7---7---7---4----4----4----4-----4-----4-----4-----4------------5----
a----5---5---5---5---4----4----4----4-----2-----2-----2-----2------------5----
e--------------------2----2----2----2------------------------------------3----

     A5
e------------------
b------------------
g------------------
d-5----7----7------
a-5----7----7------
e-3----5----5------


intro

verse

bridge

        D5               A#5          C5                                    
e----------------------------------------------------------------------------
b----------------------------------------------------------------------------
g--7-----7-----7------7----------------5----5----5----5----5----5----5----5--
d--7-----7-----7------7--8---8---8--8--5----5----5----5----5----5----5----5--
a--5-----5-----5------5--8---8---8--8--3----3----3----3----3----3----3----3--
e------------------------6---6---6--6----------------------------------------

B5                F#5          G5                 A5 A#5      B5
e-----------------------------------------------------------------
b-----------------------------------------------------------------
g-4---4----4-----4--------------------------------------3-------4-
d-4---4----4-----4---4--4--4--4--5---5-----5----5---7---3-------4-
a-2---2----2-----2---4--4--4--4--5---5-----5----5---7---1-------2-
e-------------------2--2--2--2--3---3-----3----3---5--------------





pre-chorus


chorus


ending 


    (I don't know what these chords are)
e------------------------------------------------------------------------------   
b------------------------------------------------------------------------------
g--------------------------------14-14--14-11--------------------------11------
d--12--12--12--14---14---14--14--14-14--14-11--12--12-12--14-14--14----11------
a--12--12--12--14---14---14--14----------------12--12-12--14-14--14------------
e------------------------------------------------------------------------------


e------------------------------------------------------------------------------
b------------------------------------------------------------------------------
g-------------------------------------------------14-14-14-11------------------
d--14-12--12--12--12---12--12---12--12---14--14---14-14-14-11--12--12-12-12--14
a--14-12--12--12--12---12--12---12--12---14--14----------------12--12-12-12--14
e------------------------------------------------------------------------------
   
e------------------------------------------------------------------------------
b------------------------------------------------------------------------------
g---11-------------------------------------------------------------------------
d---11---14---12-12-12-12-12-12-12-12-12-12-12-12-12-12-12-12-12--12--12-12--14
a--------14---12-12-12-12-12-12-12-12-12-12-12-12-12-12-12-12-12--12--12-12--14
e------------------------------------------------------------------------------

    
e---------------------------------------------------------------
b---------------------------------------------------------------
g------------14-14--14-11--------------------11-----------------
d----14--14--14-14--14-11--12---12-14-14-14--11---14 12--12--12-
a----14--14----------------12---12-14-14 14-------14-12--12--12-
e---------------------------------------------------------------
 
e------------------------------------------------------------------------------
b------------------------------------------------------------------------------
g--------------------------------14-14-14--11-------------------------11-------
d---12--12-12--12---12---14--14--14-14-14--11-12--12---12----14---14--11-14-12-
a---12--12-12--12---12---14--14---------------12--12---12----14---14-----14-12-
e------------------------------------------------------------------------------
       
e-----------------------------------------------------------------------------
b-----------------------------------------------------------------------------
g--------------------------------------------7-7-7-7-7-7-7-7------------------
d--12-12-12-12-12-12-12-12--7-7-7-7-7-7-7-7--7-7-7-7-7-7-7-7--5-5-5-5-5-5-5-5-
a--12-12-12-12-12-12-12-12--7-7-7-7-7-7-7-7--5-5-5-5-5-5-5-5--5-5-5-5-5-5-5-5-
e---------------------------5-5-5-5-5-5-5-5-------------------3-3-3-3-3-3-3-3-

e---------------------------------------------------------------------
b---------------------------------------------------------------------
g--7-7-7-7-7-7-7-7-----------------7-7-7-7-7-7-7-7--------------------
d--7-7-7-7-7-7-7-7-7-7-7-7-7-7-7-7-7-7-7-7-7-7-7-7-5-5-5-5-5-5-5-5----
a--5-5-5-5-5-5-5-5-7-7-7-7-7-7-7-7-5-5-5-5-5-5-5-5-5-5-5-5-5-5-5-5----
e------------------5-5-5-5-5-5-5-5-----------------3-3-3-3-3-3-3-3----

e----------------------------------------
b----------------------------------------
g----7-7-7-7-7-7-7-7---------------7-----
d----7-7-7-7-7-7-7-7-7-------------7-----
a----5-5-5-5-5-5-5-5-7-------------5-----
e--------------------5-------------------

Hey this is my first attempt at tabbing. 
If this is wrong tell me,
I would like to know.
I'm sure it's not perfect,nothing on this earth is.
I really like this song
and I really like learning other people's songs, 
so I decided I'd let you all learn some to.

I play guitar and I know I can't spell
and if you want to learn this song support 
the band,and buy the cd. 
This will make no sense if you don't.

Comments about this tab

akaukal - 2006-04-30

hey this is an awesome tab! the intro actually sounds right unlike the other ones. good job man and keep it up!


Add a comment/correction

Complimentary Christian Ringtones
Dadamobile and CGR have teamed up to bring your favorite Christian artists right to your phone. Sign up today and get 10 complementary ringtones!
Tab Country
Did you know CGR has a sister site w/ country guitar tabs? Well we do! Its called Tab Country. It has a great archive with a lot of country tabs.
Rockin Tabs
Are you looking for a site that has rock guitar tabs? Then Rockintabs.com is the place for you. It is a budding site with many rock guitar tabs. Submit your tab today.
Tab Gallery
Tab Gallery has a compilation of christian, rock, and country tabs all in one place. Come visit us.