Guitar Tabs
song title    band name

Join Us Today!

Don't strum alone...
be a part of the largest online Christian music community. Browse thousands of guitar tabs and chat w/ musicians like yourself.


It's Free!

This tab has been rated a 3.00 out of 5 for accuracy. (3 votes)Sorry, but you must be logged in to rate this tab.
Click here to log-in, or you can click here to register.
(Registration is free)

All songs owned by corresponding publishing company. If you make copies of any song on this website, be sure to report your usage to CCLI.
Submitted by: I am here

Jesus Freak

Lead Guitar

Drop D tuning                

Intro 1 (clean electric)                                                                                             
D-X-X-X-X-222-5555-12-12--10--10-99                                                                      
A-X-X-X-X-222-5555-12-12--10--10-99                                                                        
D-X-X-X-X-222-5555-12-12--10--10-99                                                                                                                                                                                                                  

Intro 2 (dist. Electric)                                                                                                      
D-222-5555-12-12-12-10-10-10-999                                                                              
A-222-5555-12-12-12-10-10-10-999                                                                        
D-222-5555-12-12-12-10-10-10-999                                                                                                                                                                                                                         

Verse (Rap Part)
D-10-10-10-10-13-13-13-13-12-12-12-12-8-8-7-7-10-10-10-10-13-13-13-13-12-12-12
A-10-10-10-10-13-13-13-13-12-12-12-12-8-8-7-7-10-10-10-10-13-13-13-13-12-12-12
D-----------------------------------------------------------------------------              

D-12-12-12-12-12
A-12-12-12-12-12
D---------------

Chorus
D-222-5555-12-12--77-99
A-222-5555-12-12--77-99
D-222-5555-12-12--77-99

Guitar Solo (Kapo 1st fret)
E------------------------------9-----15-------------0
B-2-----2------2---------------888----14-14-14-0
G--4b6---4b6---4b6-0000-------------------------

Final Chorus
E-----------------------10b11b12-h12-h12-h12-h12-h12-h12-h12-h12-h12-h12-h12-h12
B-------------------------------------------------------------------------------
G-12~~~-12~~~~-12~~9~~~---------------------------------------------------------
D-------------------------------------------------------------------------------
A-------------------------------------------------------------------------------
D-------------------------------------------------------------------------------

E-h12-h12-h12----------------------------------------------------15-------------
B----------------------------------------------------3pb5r3---------14----------
G------------------12pb14r12--------------------------------412-------13-------
D-------------------------------------------------------------------------12~~~~
A---------------------------------12b13b13.5b14---------------------------------
D------------------------------------------------14-----------------------------

E-12h13-12h13-h13h1314h15-14h15-14h15-14h1515h16-15h16-15h16-15h1617h18-17h18
B-------------------------------------------------------------------------------
G-------------------------------------------------------------------------------
D-------------------------------------------------------------------------------
A-------------------------------------------------------------------------------
D-------------------------------------------------------------------------------

E-17h18-17h18
B------------
G------------

Ending
E-18b19b20
B----------
G----------
D----------
A----------
D-------(20)

Order
-Intro 1 x2
-Intro 2 x4
-Verse   x2
-Chorus  x4
-Verse   x2
-Chorus  x9
-Guitar Solo
-Chorus  x4
-Final Chorus
-Ending

If you have any corrections, just post them
  |
Jesus 
  a
  v
  e
  s
I am here

Comments about this tab

I am here - 2005-03-06

Sorry guys, on the final chorus part, just before the hammer ons you do not go
15----------- you go 15------
---14-------- --14----
------13----- ----13~~
---------12~~

And on the series of hammer ons you do it twice


I am here - 2005-04-11

Could the few of you looking at this tab place some comments
Please!!!
I would like to know any problems you all have with it or just
positive feedback. Thanks

I am here


I am here - 2005-04-23

Just So you all know
This entire song is played with a kapo 1st fret
All of it is written as if there wasn't one
Except for the solo
Thats Written in Kapo Tab
So, like the 1st note the 2/4
would actually be a 3/5 on the fretboard
Otherwise if it says 2 it is 2


Wesley7777 - 2005-04-30

this is awesome how could you hear all those parts you have a great ear keep it up thanks


Wesley7777 - 2005-04-30

this is awesome how could you hear all those parts you have a great ear keep it up thanks


I am here - 2005-05-18

During the verses, the slow parts, you play
A----4s5--5-4
D-2----------
four times under the lyrics, listen hard.


I am here - 2005-05-18

Also During rap if you want to play backround part
play
A--------8s9s10---9-----55-444
D-0-------------0----0--------

A------9s10---9---9-----9---9~~x2
D-0---------0---0----00---0----
Palm Mute D String


Dark Tofu - 2005-06-28

A little confusing
but amazing, good ear!


Fortress182 - 2005-07-30

WoW! the intro is right on. great song!


fenderbender123 - 2006-04-03

I looks about right! Keep it up!


underoathrocks - 2006-10-03

Very Good, but it's not writteh Kapo, that's just cheezy, it's Capo.
NOOOOO NOT CAPO! ha ha just kidding.


Add a comment/correction

Complimentary Christian Ringtones
Dadamobile and CGR have teamed up to bring your favorite Christian artists right to your phone. Sign up today and get 10 complementary ringtones!
Tab Country
Did you know CGR has a sister site w/ country guitar tabs? Well we do! Its called Tab Country. It has a great archive with a lot of country tabs.
Rockin Tabs
Are you looking for a site that has rock guitar tabs? Then Rockintabs.com is the place for you. It is a budding site with many rock guitar tabs. Submit your tab today.
Tab Gallery
Tab Gallery has a compilation of christian, rock, and country tabs all in one place. Come visit us.