Guitar Tabs
song title    band name

Join Us Today!

Don't strum alone...
be a part of the largest online Christian music community. Browse thousands of guitar tabs and chat w/ musicians like yourself.


It's Free!

Audio Adrenaline - God Shaped Hole

This tab has not yet been rated for accuracy.Sorry, but you must be logged in to rate this tab.
Click here to log-in, or you can click here to register.
(Registration is free)

All songs owned by corresponding publishing company. If you make copies of any song on this website, be sure to report your usage to CCLI.
God Shaped Hole
Audio Adrenaline

Here's the intro for God Shaped Hole, off the new AA CD, it's sounds
pretty accurate but I've only had the CD a few hours so....

 G                                       G
-3---3-----3---3--------------3---3------3-------
-3---3-----3---3--------------3---3------3-------
-0---0-----2---2--------------2---2------0-------
-0---0-----------------------------------0-------
-2---2---------------2--2----------------2-------
-3---3-----------------------------------3-------

Sorry if this is kinda vague, I don't have a great ear, but that should
help some people
and maybe lead someone toward a better, more complete tab.....
Send comments, corrections, etc...to   tydancy@vnet.net

---------------------------------------------------------
Verse and Chorus submitted by Shane Foster  wwjd@psnw.com
---------------------------------------------------------
Verse:
--3-----3-----3-----3--
--3-----3-----3-----3--
--0-----0-----0-----2--
--0-----0-----2-----2--
--2-----2-----2-----0--
--3-----2-----X-----X--

Chorus:
--0-----3--
--1-----2--
--2-----3--
--2-----0--
--0-----X--
--X-----X--

I know this is correct because I watched Mark play it at the
Zombie Concert in Visaliah!

Comments about this tab

No comments/corrections found. Add your own

Complimentary Christian Ringtones
Dadamobile and CGR have teamed up to bring your favorite Christian artists right to your phone. Sign up today and get 10 complementary ringtones!
Tab Country
Did you know CGR has a sister site w/ country guitar tabs? Well we do! Its called Tab Country. It has a great archive with a lot of country tabs.
Rockin Tabs
Are you looking for a site that has rock guitar tabs? Then Rockintabs.com is the place for you. It is a budding site with many rock guitar tabs. Submit your tab today.
Tab Gallery
Tab Gallery has a compilation of christian, rock, and country tabs all in one place. Come visit us.