Guitar Tabs
song title    band name

Join Us Today!

Don't strum alone...
be a part of the largest online Christian music community. Browse thousands of guitar tabs and chat w/ musicians like yourself.


It's Free!

This tab has been rated a 4.29 out of 5 for accuracy. (7 votes)Sorry, but you must be logged in to rate this tab.
Click here to log-in, or you can click here to register.
(Registration is free)

All songs owned by corresponding publishing company. If you make copies of any song on this website, be sure to report your usage to CCLI.
Submitted by: Longhorn26

I'll Fly Away
Jars of Clay
Redemption Songs

Chords: G- 320033  G7- 323003 C- x32033 Em- 0220033 D- xx0232 D/F#- 200232

Verse/Chorus

G G7 C G

G D/F# Em

G D G

Comments about this tab

rapp9736 - 2005-08-02

CHORUS
G G7 C G C G C G
Iíll fly away, Oh Glory, Iíll fly away
G Dsus Em G D G
When I die, hallelujah by and by, Iíll fly away

Intro Ė G C G C G C G x2

VERSE 1
G G7 C G C G C G
Some bright morning when this life is over, Iíll fly away
G C G
To a land on Godís celestial shore, Iíll fly away


Bridge Ė Em, G, Dsus, G

V. 2
When the shadows of this life have grown, Iíll fly away
Like a bird from these prison walls, Iíll fly away

V. 3
Oh how glad and happy when we meet, Iíll fly away
No more cold iron shackles on my feet, Iíll fly away

Solo Ė chorus chord pattern.

V. 4
Just a few more weary days and then, Iíll fly away
To a land where joy will never end, Iíll fly away

*Chorus repeats until done


Dexterex - 2006-01-12

Brothers and Sisters I think you'll find that Jars of Clay's chord progression on this song is much more simple. There are embellishments, but they are not full chord changes.

|G2 |G2 |C2 |G2 |
Iíll fly away, Oh Glory, Iíll fly away
|G2 |G2 Em7 |G2 Dsus |G2 |
When I die, hallelujah by and by, Iíll fly away

||: G | G | G | C :||

|G2 |G2 |C2 |G2 |
Some bright morning when this life is over, Iíll fly away
|G2 |G2 |C2 |G2 |
To a land on Godís celestial shore, Iíll fly away

| Em7 | G2 | Em7 |

|G2 |G2 |C2 |G2 |
When the shadows of this life have grown, Iíll fly away
|G2 |G2 |C2 |G2 |
Like a bird from these prison walls, Iíll fly, Iíll fly away
|G2 |G2 |C2 |G2 |
Iíll fly away, Oh Glory, Iíll fly away
|G2 |G2 Em7 |G2 Dsus |G2 |
When I die, hallelujah by and by, Iíll fly away

|G2 |G2 |C2 |G2 |
Oh how glad and happy when we meet, Iíll fly away
|G2 |G2 |C2 |G2 |
No more cold iron shackles on my feet, Iíll fly away
|G2 |G2 |C2 |G2 |
Iíll fly away, Oh Glory, Iíll fly away
|G2 |G2 Em7 |G2 Dsus |G2 |
When I die, hallelujah by and by, Iíll fly away

|G2 |G2 |C2 |G2 |
|G2 |G2 Em7 |G2 Dsus |G2 |

|G2 |G2 |C2 |G2 |
Just a few more weary days and then, Iíll fly away
|G2 |G2 |C2 |G2 |
To a land where joy will never end, Iíll fly away
|G2 |G2 |C2 |G2 |
Iíll fly away, Oh Glory, Iíll fly away
|G2 |G2 Em7 |G2 Dsus |G2 |
When I die, hallelujah by and by, Iíll fly away
|G2 |G2 |C2 |G2 |
Iíll fly away, Oh Glory, Iíll fly away
|G2 |G2 Em7 |G2 Dsus |G2 |
When I die, hallelujah by and by, Iíll fly away
|G2 |G2 |C2 |G2 |
Iíll fly away, Oh Glory, Iíll fly away
|G2 |G2 Em7 |G2 Dsus |C2 |
When I die, hallelujah by and by, Iíll fly away
|G2 Dsus |C2 |G2 Dsus |G2 |
Iíll fly away, Iíll fly away

G2- 320033
C2- x32033
Em7- 0220033
Dsus- xx0233


Cobey H - 2006-05-18

Hey everyone. I checked here to see if I could find the solo on here before breaking it down myself. Well, for anyone else looking, I went ahead and broke it down and I think this is pretty well right on accurate with the song. Check it out and C what U think.
Pretty easy once U get it figured out.
Codes:
/=slide
^=bend up
*=bend down
()=notes already picked and left ringing
p=pull
h=hammer

E------------------------------------------------------------------------------
B------------------------------------------------------------------------------
G-----16----14----12----14-12----14-14-12-------17----17----17----17-----------
D-/12----12----12----12-------12----------12/14----14----14----14----(14)/12---
A------------------------------------------------------------------------------
E------------------------------------------------------------------------------

E------------------------------------------------------------------------------
B------------------------------------------------------------------------------
G-16-14-12---------------------------------------------------------------------
D---------------------5-5h7-5-^7-^7-^7-*(7)p5------5-----5-7-5-^7-^7-^7-*(7)p5-
A--------------/5-5h7--------------------------5/7---7-------------------------
E------------------------------------------------------3----------------------3

I just wanna say how awesome God is to allow all of these new worship songs to be written in praise to Jesus, which allows us to connect with this generation musically.


Cobey H - 2006-05-18

It's me again... first time didn't line up right, so here's my second try to communicate this tab. Same codes as defined in my previous entry... just hope this one tranlates over to the screen u r seeing. Thanks.

E----------------------------------------
B----------------------------------------
G-----16----14----12----14-12----14-14-12
D-/12----12----12----12-------12---------
A----------------------------------------
E----------------------------------------

E-----------------------------------------------
B-----------------------------------------------
G-------17----17----17----17------------16-14-12
D-12/14----14----14----14----(14)/12------------
A-----------------------------------------------
E-----------------------------------------------

E------------------------------------
B------------------------------------
G------------------------------------
D------------5-5h7-5-^7-^7-^7-*(7)p5-
A-----/5-5h7-------------------------
E------------------------------------

E-----------------------------------
B-----------------------------------
G-----------------------------------
D-----5-----5-7-5-^7-^7-^7-*(7)p5---
A-5/7---7---------------------------
E---------3------------------------3


chango1018 - 2007-03-30

Intro:

------------------------------------------------
--------------------0-----------------------0---
--0-----------0-----------0-----------0---------
--------4-----------------------4---------------
------------------------------------------------
-----3-----3-----3-----3-----3-----3-----3------


Add a comment/correction

Complimentary Christian Ringtones
Dadamobile and CGR have teamed up to bring your favorite Christian artists right to your phone. Sign up today and get 10 complementary ringtones!
Tab Country
Did you know CGR has a sister site w/ country guitar tabs? Well we do! Its called Tab Country. It has a great archive with a lot of country tabs.
Rockin Tabs
Are you looking for a site that has rock guitar tabs? Then Rockintabs.com is the place for you. It is a budding site with many rock guitar tabs. Submit your tab today.
Tab Gallery
Tab Gallery has a compilation of christian, rock, and country tabs all in one place. Come visit us.