Guitar Tabs
song title    band name

Join Us Today!

Don't strum alone...
be a part of the largest online Christian music community. Browse thousands of guitar tabs and chat w/ musicians like yourself.


It's Free!

This tab has been rated a 4.00 out of 5 for accuracy. (1 vote)Sorry, but you must be logged in to rate this tab.
Click here to log-in, or you can click here to register.
(Registration is free)

All songs owned by corresponding publishing company. If you make copies of any song on this website, be sure to report your usage to CCLI.
Submitted by: ian_b2005

Project 86
Soma
Truthless Heroes
Track 15



Tuning: DADGBE

Intro: Guitar 1 After effects at :07 sec
|-------------------------------------------------------------------------------------------------------|
|-------------------------------------------------------------------------------------------------------|
|-------------------------------------------------------------------------------------------------------|
|--4---4--4--4--4--4--4--2--2--2- - 2--2--2-------------------------------------------------------------|
|--0-h-2--2--2--0--0--0--0--0--0--- 2--2--2-------------------------------------------------------------|
|-----------------------------------2--2--2-------------------------------------------------------------|

Guitar 2  comes in at around :13 to 14 sec.
|----------------------------------------------------------------------------------------------------|
|----------------------------------------------------------------------------------------------------|
|----------------------------------------------------------------------------------------------------|
|-0-~~~~~~---4----4-4-4--4--4--4--2--2--2---2---2--2-------------------------------------------------|
|-0~~~~~~~---0--h-2-2-2--0--0--0--0--0--0---2---2--2-------------------------------------------------|
|-0~~~~~~~~---------------------------------2---2--2-------------------------------------------------|

Guitar 1 keeps repeating the first riff till the verse

Guitar 2 at :22 sec adds this to the end of the main riff

|--------------------------------------------------------------------------------------------------|
|--------------------------------------------------------------------------------------------------|
|----7-7-7---9-9--9-11  11---11----12---12---12----------------------------------------------------|
|----x-x-x---x-x--x--x-  x----x----x----x-----x----------------------------------------------------|
|----5-5-5---7-7--7--9-  9----9----10---10---10----------------------------------------------------|
|--------------------------------------------------------------------------------------------------|








Guitar 2 plays this behind the main riff of Guitar 1 at :24 sec I’m not sure of this part is     hard to hear 
|------------------------------------------------------------------------------------------|
|------------------------------------------------------------------------------------------|
|--4--4---4-4--4--h--6---6--6-6--4--4-4----------------------------------------------------|
|--4--4---2-2--2---------2--2-2--2--2-2----------------------------------------------------|
|------------------------------------------------------------------------------------------|
|------------------------------------------------------------------------------------------|





Verse: Clean
|---------------------------------------------------------------|
|--------------------7------------------------------------------|
|---------------------------------------------------------------|                          Repeat x 8 times
|--------0-------------------------2--------4-------------------|
|-----0-------------------------2--------4----------------------|
|--0-------------------------2--------4-------------------------|



Verse cont.                                               Harmonics
|--------------------------------------------------5*------------------------------|
|-----------------7-------------------------------5*-------------------------------|
|----------------------------------------------------------------------------------|
|-------0-------------------2--2--4--4---------------------------------------------|
|----0----------------------2--2--4--4---------------------------------------------|
|-0-------------------------2--2--4--4---------------------------------------------|
                            ^ Hit the distortion for the final notes


Chorus is just the riff repeated about 4 times for both guitars


Bridge
Guitar 1 at 2:50 
|-----------------------------------------------------------------------------------------|
|-----------------------------------------------------------------------------------------|
|-----------------------------------------11-11--11---------------------------------------|
|---4-4-4-4-4-4-4-4-4-4-4----or------------x--x---x---------------------------------------|
|------------------------------------------9--9---9---------------------------------------|
|-----------------------------------------------------------------------------------------|



Guitar 2 at 3:06
|--------------------------------------------------------------------------------------|
|--------------------------------------------------------------------------------------|
|--------------------------------------------------------------------------------------|
|-9-9-9---4-4-4---5--5--5---12-12----11--11---9-9-9--4-4-4---5-5-5---5-5-5-------------|
|-9-9-9---4-4-4---5--5--5---12-12----11--11---9-9-9--4-4-4---5-5-5---5-5-5-------------|
|-9-9-9---4-4-4---5--5--5---12-12----11--11---9-9-9--4-4-4---5-5-5---5-5-5-------------|

Pm………………………………....................................................


Outro 

Basically the Intro/Chorus then at 3:38 they both do the second half of the Intro

If you have any Questions or Comments feel free to email me at serenity_reigns@hotmail.com 

Also, If you would like to use my tab even though I’m not sure its even close please ask me first.









Comments about this tab

No comments/corrections found. Add your own

Complimentary Christian Ringtones
Dadamobile and CGR have teamed up to bring your favorite Christian artists right to your phone. Sign up today and get 10 complementary ringtones!
Tab Country
Did you know CGR has a sister site w/ country guitar tabs? Well we do! Its called Tab Country. It has a great archive with a lot of country tabs.
Rockin Tabs
Are you looking for a site that has rock guitar tabs? Then Rockintabs.com is the place for you. It is a budding site with many rock guitar tabs. Submit your tab today.
Tab Gallery
Tab Gallery has a compilation of christian, rock, and country tabs all in one place. Come visit us.