Guitar Tabs
song title    band name

Join Us Today!

Don't strum alone...
be a part of the largest online Christian music community. Browse thousands of guitar tabs and chat w/ musicians like yourself.


It's Free!

This tab has been rated a 0.00 out of 5 for accuracy. (2 votes)Sorry, but you must be logged in to rate this tab.
Click here to log-in, or you can click here to register.
(Registration is free)

All songs owned by corresponding publishing company. If you make copies of any song on this website, be sure to report your usage to CCLI.
Submitted by: Righteous Chris

Arist:ApologetiX
Song:I'm Gonna Feed(500 Mouths)

Repeat as many times as needed
|----------------------------------------------------------------------------|
|----------------------------------------------------------------------------|
|----------------------------------------------------------------------------|
|----------------------------------------------------------------------------|
|----------------------------------------------------------------------------|
|-0-0-0-0-0-0-0-0-0-0----0-0-0-0-0-0-0-0-0-0--3-3-5-5---0-0-0-0-0-0-0-0-0-0--|

|----------------------------------------------------------------------------|
|----------------------------------------------------------------------------|
|----------------------------------------------------------------------------|
|----------------------------------------------------------------------------|
|----------------------------------------------------------------------------|
|-0-0-0-0-0-0-0-0-0-0-3-3-3-3-5-5-5-5-0-0-0-0-0-0-0-0-0-0--------------------|

I believe this is pretty correct.I didn't put the beat so just listen to the 
song.So....if I forgot anything just say so.
Bye LOVE&PEACE to you all.
And may God bless,good night.

Comments about this tab

thibeaz - 2005-11-17

That Sounds more like a different one i heard on the cd


cngp90 - 2005-12-02

sounds pretty good. you might want to try using power chords like..

|---------------------------------------------------|
|---------------------------------------------------|
|---------------------------------------------------|
|-2-2-2-2-2-2-2-2--7-7-7-7-9-9-9-9--2-2-2-2-2-2-2-2-|
|-2-2-2-2-2-2-2-2--5-5-5-5-7-7-7-7--2-2-2-2-2-2-2-2-|
|-0-0-0-0-0-0-0-0--5-5-5-5-7-7-7-7--0-0-0-0-0-0-0-0-|


Add a comment/correction

Complimentary Christian Ringtones
Dadamobile and CGR have teamed up to bring your favorite Christian artists right to your phone. Sign up today and get 10 complementary ringtones!
Tab Country
Did you know CGR has a sister site w/ country guitar tabs? Well we do! Its called Tab Country. It has a great archive with a lot of country tabs.
Rockin Tabs
Are you looking for a site that has rock guitar tabs? Then Rockintabs.com is the place for you. It is a budding site with many rock guitar tabs. Submit your tab today.
Tab Gallery
Tab Gallery has a compilation of christian, rock, and country tabs all in one place. Come visit us.