Guitar Tabs
song title    band name

Join Us Today!

Don't strum alone...
be a part of the largest online Christian music community. Browse thousands of guitar tabs and chat w/ musicians like yourself.


It's Free!

This tab has been rated a 5.00 out of 5 for accuracy. (2 votes)Sorry, but you must be logged in to rate this tab.
Click here to log-in, or you can click here to register.
(Registration is free)

All songs owned by corresponding publishing company. If you make copies of any song on this website, be sure to report your usage to CCLI.
Submitted by: watsond

Spiraling
Seventh Day Slumber
2003 Crowne Music Group
All Rights Reserved
Dropped D tuning

This is the first time this song has been posted, its pretty close to the real 
thing. let me know how it sounds!

Intro/Verse
e--------------------------------------
b--------------------------------------
g--------------------------------------
d-11-11-11-7-7-7-0--4-5--7-5-4-5-9-9-9- Played once on electric guitar
a-9--9--9--5-5-5-0---------------7-7-7- and then go to acoustic or 
D-9--9--9--5-5-5-0---------------7-7-7- a clean channel

Chorus

e---------------------------------------
b---------------------------------------
g---------------------------------------
d-7-7-7-7-0-0-0-0-0-11-11-11-11-7-7-7-7-
a-5-5-5-5-0-0-0-0-0-9--9--9--9--9-9-9-9-
D-5-5-5-5-0-0-0-0-0-9--9--9--9--9-9-9-9-

I am not too sure on the bridge, but thats basically the song.
Enjoy

Comments about this tab

guitarist4life - 2005-04-22

do u know the melody that the electric guitar plays during the chorus? if u do, plz post it.


guitardude1 - 2005-06-01

whats the solo??????


ryan_grooms22 - 2005-06-02

it looks like you tabbed (picking up the pieces) because it sounds identical to it so i will show you how i play picking up the pieces

intro/verse:4x

E)----------------------------------------------------------------------------)
B)----------------------------------------------------------------------------)
G)----------------------------------------------------------11-12-14-12-11/12-)
D)-9-11-9-11-9--9-9-11-9-11-9--5-7-5-7-5--5-5-7-5-7-5--0-0--X--X--X--X--X-/X--)
A)-9-9--9-9--9--9-9-9--9-9--9--5-5-5-5-5--5-5-5-5-5-5--0-0--9--10-12-10-9-/10-)
D)-9-9--9-9--9--9-9-9--9-9--9--5-5-5-5-5--5-5-5-5-5-5--0-0--------------------)

E)-----------------)
B)-----------------)
G)-9-9-9-9-9-9-9-9-)
D)-7-7-7-7-7-7-7-7-)
A)-7-7-7-7-7-7-7-7-)
D)-7-7-7-7-7-7-7-7-)

CHORUS

E)---------------------------------------------------------------------------)
B)-8-8-8-8-8-8-8-8--3-3-3-3-3-3-3-3------------------------------------------)
G)-7-7-7-7-7-7-7-7--2-2-2-2-2-2-2-2---------------------9-9-9-9--11-12-12-12-)
D)-5-5-5-5-5-5-5-5--0-0-0-0-0-0-0-0--9-9-9-11-12-12-12--7-7-7-7--X--X--X--X--)
A)-5-5-5-5-5-5-5-5--0-0-0-0-0-0-0-0--9-9-9-9--9--9--9---7-7-7-7--9--10-10-10-)
D)-5-5-5-5-5-5-5-5--0-0-0-0-0-0-0-0--9-9-9-9--9--9--9---7-7-7-7--------------)


ryan_grooms22 - 2005-06-02

it looks like you tabbed (picking up the pieces) because it sounds identical to it so i will show you how i play picking up the pieces

intro/verse:4x

E)---------------------------------------------------------------------------
B)---------------------------------------------------------------------------
G)---------------------------------------------------------11-12-14-12-11/12-
D)9-11-9-11-9--9-9-11-9-11-9--5-7-5-7-5--5-5-7-5-7-5--0-0--X--X--X--X--X-/X--
A)9-9--9-9--9--9-9-9--9-9--9--5-5-5-5-5--5-5-5-5-5-5--0-0--9--10-12-10-9-/10-
D)9-9--9-9--9--9-9-9--9-9--9--5-5-5-5-5--5-5-5-5-5-5--0-0--------------------

E)-----------------
B)-----------------
G)-9-9-9-9-9-9-9-9-
D)-7-7-7-7-7-7-7-7-
A)-7-7-7-7-7-7-7-7-
D)-7-7-7-7-7-7-7-7-

CHORUS

E)--------------------------------------------------------------------------
B)8-8-8-8-8-8-8-8--3-3-3-3-3-3-3-3------------------------------------------
G)7-7-7-7-7-7-7-7--2-2-2-2-2-2-2-2---------------------9-9-9-9--11-12-12-12-
D)5-5-5-5-5-5-5-5--0-0-0-0-0-0-0-0--9-9-9-11-12-12-12--7-7-7-7--X--X--X--X--
A)5-5-5-5-5-5-5-5--0-0-0-0-0-0-0-0--9-9-9-9--9--9--9---7-7-7-7--9--10-10-10-
D)5-5-5-5-5-5-5-5--0-0-0-0-0-0-0-0--9-9-9-9--9--9--9---7-7-7-7--------------

sorry about the first one
god bless
-ryan_grooms22


hb1guitarist - 2005-06-27

e |--------------------------|----------------------------|
B |-12h15/20----12h15/20-/22-|-12h15p12-------------------|
G |--------------------------|---------12-10--------------|
D |--------------------------|---------------14-----------|
A |--------------------------|----------------------------|
E |--------------------------|----------------------------|


hb1guitarist - 2005-06-27

up there above me is the melodie played bye the electric guitar durring the chorus i have found about 3 diffrent ways but this one is the way i play it


Fortress182 - 2005-07-28

I don't think that sounds right - the original Spiraling i mean


Fortress182 - 2005-07-28

Never mind that last comment,
the chorus is right on, but i don't understand the verse


Fortress182 - 2005-07-28

oh i get it now! its picking up the pieces, not spiraling...haha oops.


Fortress182 - 2005-07-28

I'm confused on the last set of notes in the chorus???


Add a comment/correction

Complimentary Christian Ringtones
Dadamobile and CGR have teamed up to bring your favorite Christian artists right to your phone. Sign up today and get 10 complementary ringtones!
Tab Country
Did you know CGR has a sister site w/ country guitar tabs? Well we do! Its called Tab Country. It has a great archive with a lot of country tabs.
Rockin Tabs
Are you looking for a site that has rock guitar tabs? Then Rockintabs.com is the place for you. It is a budding site with many rock guitar tabs. Submit your tab today.
Tab Gallery
Tab Gallery has a compilation of christian, rock, and country tabs all in one place. Come visit us.