Guitar Tabs
song title    band name

Join Us Today!

Don't strum alone...
be a part of the largest online Christian music community. Browse thousands of guitar tabs and chat w/ musicians like yourself.


It's Free!

This tab has been rated a 3.29 out of 5 for accuracy. (7 votes)Sorry, but you must be logged in to rate this tab.
Click here to log-in, or you can click here to register.
(Registration is free)

All songs owned by corresponding publishing company. If you make copies of any song on this website, be sure to report your usage to CCLI.
Submitted by: hawknelson28

Hawk Nelson:

California:

Intro:
|-------------------------------------------
|-------------------------------------------
|-------------------------------------------
|-------------------------------------------
|-22-6-4-2-22-676-2-----6-4-2----676-4-6-2--

Comments about this tab

hawknelson28 - 2005-01-30


Sorry i dont know what happened it subpost to be like this dumb thing sorry about that.

Intro:
|-------------------------------------------
|-------------------------------------------
|-------------------------------------------
|-------------------------------------------
|-22-6-4-2-22-676-2-----6-4-2----676-4-6-2--
|-------------------22--------22------------

Tyler.


hawknelson28 - 2005-01-30

So Plz Rate Off Of That One^^ Not the one that i posted thankx


hawknelson28 - 2005-01-31

Intro:


hawknelson28 - 2005-01-31

Intro:
|--------------------------------
|--------------------------------
|--------------------------------
|--------------------------------
|-33-753-33-7873----753----787573
|----------------11-----11-------

Or It Can Be Played Like This, oh and those are ones not elevens just thought i let you know so you wouldnt get confused god bless Tyler.


guitarhockeyman - 2005-02-03

INTRO

D|-4-4-8\6-4---4-4-8-h9-8-------8\6-4------8-h9-8-6-h8-|
A|--------------------------2-2-------2-2--------------|


hawknelson28 - 2005-02-04

I dont know i kinda like mine better there are so many ways you can play that haha... so idk you might be right i just like mine better but whatever

God Bless..


FMstaticfreak - 2005-03-24

yeah, good job but...

D|-3-3-7-5-3--3-3-7-8-7-5-7--0-0-7-5-3-0-0-7-8-7-5-7...

It just sounds right, Standard tuning


FMstaticfreak - 2005-03-24

oops, my bad, up one fret...hehe...thanx kip


FMstaticfreak - 2005-03-24

or just tune your guitar down half a step...?...?


Highfive1177 - 2005-06-24

Learn How to WRITE a Freakin Tab!!!!...No Offense!!!


wierdo - 2005-06-27

ok, well, all you guys need a lot of help!!(no offence)the first and 2nd attempt were definatly wrong. sorry guys, you need to listen to the flippen song MORE closely!!
whatever

God Bless you all! <>< *<: )


wierdo - 2005-06-27

you were close
<><


whatsmyageagain - 2005-08-13

How can you say this is close? In the video and live he plays the intro around the 7th fret!


xchickrockerx - 2006-01-06

guitarhockeyman and fmstaticfreak are the only ones out of everyone who got it right. its on the D string starting on fret 4. actually you can also play it on the low E string starting on the 4th fret, and play it down one octave.


d---4--4--8-6-4--4-4--8-9-8--9-9--8-6-4--4-4--8-9-8-6-8-4

or on the low e string starting on the 2nd fret, so just shifting all the numbers down two.


xchickrockerx - 2006-01-06

i meant on the low e string starting on the 2nd fret...


Vanquish385 - 2006-03-04

yeah all these are about the same, just in different positons. i found an easy was to play by kinda combining all of emin a way...so here goes

D|----8-6-4----8-9-8-----8-6-4-----89868------------------------------------
A|-99-------99--------66--------66------9-----------------------------------
E|--------------------------------------------------------------------------
^^ ^^
'' ''
These 6's are questionable

thats basically it. sounds good, easy to play. havin a lil trouble with those 6's tho, i think thats all we have to sort out still...

best of luck to all


Vanquish385 - 2006-03-04

well that didnt come out like i typed it, but oh well. the questionable 6's are the ones on the D string. other than that it all makes sense


Vanquish385 - 2006-03-04

scratch that, the ones on the A string are qestionable ones. im just making this worse and worse, so im done. isnt there a way to edit your posts?


Andy C. - 2007-05-30

It's actually in drop C#

C#[5--5---/9--7--5--5--5--5--(5)/9--10--9-----------/9--7-----5---------------9--10-9\7/9\
G#[-----------------------------------------3--3--------------------3--3--(3)/
C#[


Andy C. - 2007-05-30

It's kind of hard to read mine sorry. If you look at it closely you'll be able to figure it out.


Add a comment/correction

Complimentary Christian Ringtones
Dadamobile and CGR have teamed up to bring your favorite Christian artists right to your phone. Sign up today and get 10 complementary ringtones!
Tab Country
Did you know CGR has a sister site w/ country guitar tabs? Well we do! Its called Tab Country. It has a great archive with a lot of country tabs.
Rockin Tabs
Are you looking for a site that has rock guitar tabs? Then Rockintabs.com is the place for you. It is a budding site with many rock guitar tabs. Submit your tab today.
Tab Gallery
Tab Gallery has a compilation of christian, rock, and country tabs all in one place. Come visit us.