Guitar Tabs
song title    band name

Join Us Today!

Don't strum alone...
be a part of the largest online Christian music community. Browse thousands of guitar tabs and chat w/ musicians like yourself.


It's Free!

This tab has been rated a 4.18 out of 5 for accuracy. (11 votes)Sorry, but you must be logged in to rate this tab.
Click here to log-in, or you can click here to register.
(Registration is free)

All songs owned by corresponding publishing company. If you make copies of any song on this website, be sure to report your usage to CCLI.
Submitted by: Adam K

Hawk Nelson-Things We Go Through
Copyright  2004 Tooth and Nail Records.
Drop C# Tuning C#-G#-C#-F#-A#-D#
Intro
F#[-----------------5-5-7-7-----------------5-7-4-2-]
C#[-----------------5-5-7-7-----------------5-7-4-2-]
G#[----5/5-3/3-2/2--3-3-5-5----5/5-3/3-2/2--3-5-2-0-]x2
C#[-5/5---------------------5/5---------------------]
Then
C#[-5--]
G#[-5--]
C#[-5--]

Verse
(I don't know the exact strings played on the
 verse but I'll give ya the chords that way you
 can mess around with it)

G Am Em7 C2 x2

Pre-Chorus
F#[----------------------5x---------------------------5-]
C#[-5xxxx5/7xxxx7/2xxxx2/5x------5xxxx5/7xxxx7/2xxxx2/5-]
G#[-5xxxx5/7xxxx7/2xxxx2/3x5-3-2-5xxxx5/7xxxx7/2xxxx2/3-]
C#[-5xxxx5/7xxxx7/2xxxx2/--------5xxxx5/7xxxx7/2xxxx2/--]

Chorus
F#[--------------7-4-4-4-4-5-5x-4--------------7---------5-]
C#[-5-5-5-5-7-7x-7-4-4-4-4-5-5x-5-5-5-5-5-7-7x-7-2-2-2-2-5-]
G#[-5-5-5-5-7-7x-5-2-2-2-2-3-3x-3-5-5-5-5-7-7x-5-2-2-2-2-3-]
C#[-5-5-5-5-7-7x------------------5-5-5-5-7-7x---2-2-2-2---]

Intro

Verse 2
G Am Em7 C2 x2
Then
G Em C x2

Pre-Chorus 2
F#[----------------------5x---------------------------5-5-]
C#[-5xxxx5/7xxxx7/2xxxx2/5x------5xxxx5/7xxxx7/2xxxx2/5-5-]
G#[-5xxxx5/7xxxx7/2xxxx2/3x5-3-2-5xxxx5/7xxxx7/2xxxx2/3-3-]
C#[-5xxxx5/7xxxx7/2xxxx2/--------5xxxx5/7xxxx7/2xxxx2/----]

Chorus

Bridge
C#[-xx2-xx0-5-5-5-5--xx2-xx7-5-5-5-5--2-2-0-0-5-5-5-5-]
G#[-xx2-xx0-5-5-5-5--xx2-xx5-5-5-5-5--2-2-0-0-5-5-5-5-]
C#[-xx2-xx0-5-5-5-5--xx2-xx4-5-5-5-5--2-2-0-0-5-5-5-5-]

C#[-2-2-7-7-5-7-]
G#[-2-2-5-5-5-7-]
C#[-2-2-4-4-5-7-]

Post-Bridge
G Am Em7 C2

G Am Em7
Then
C#[-9-4--]
G#[-9-4--]
C#[-9-4--]

Pre-Chorus 3
F#[-------------------------5-5-5-5-]
C#[-5-5-5-5-7-7-7-7-2-2-2-2-5-5-5-5-]
G#[-5-5-5-5-7-7-7-7-2-2-2-2-3-3-3-3-]
C#[-5-5-5-5-7-7-7-7-2-2-2-2---------]
P.M.................................

Chorus 

Tabbed by Adam K


Comments about this tab

music luvr - 2005-04-12

sounds great!...


sunvaqud00 - 2005-06-08

awesome...
There is a part that the guitarist or a second one plays during the third part of the bridge:
F#[-444455447777777------------]
C#[-xxxxxxxxxxxxxxx555577775-7-]
G#[-222233225555555333355555-7-]
C#[----------------222244445-7-]


Down_In_Flames - 2005-06-24

great tab but i find it easier to play it tuned D# G# C# F#. and play the chords that are just bars like the ones played on the strings above it. if that makes any sense


orcrist6 - 2005-07-04

how do you tune to C#? or mabey how do know what a C# is to tune your e string down is a better way to ask it.


I Rock 4 Christ - 2006-01-10

this looks more like a bass tab than a guitar tab to me!!


I Rock 4 Christ - 2006-01-10

this looks more like a bass tab than a guitar tab to me!!


I Rock 4 Christ - 2006-01-10

LOL oops!!


krutchfan66 - 2006-04-15

i have this tabbed in standard tuning if ne 1 wants it just ask


Hawk_Nelson89 - 2006-04-25

hey does anybody know the picking part to this song??


bobiscool278 - 2006-07-21

could you post the standard tuning tab???


bobiscool278 - 2006-08-03

hey could someone post the verse to this?


jkim519 - 2006-09-07

if anyone still couldn't figure out how to drop tune to C# it's quite simple. Just simply play a C# on ur A string and u can tune to that -_-.... i dont know how u couldn't think of that


Simonpo - 2006-11-20

hey can i have the tab for standrad tuning plz?


Simonpo - 2006-11-20

hey guys. the picking part for the verse goes like this

D#[--------------------------------------]
A#[---8---7---5---7----------------------]
F#[----7---7---7---7---------------------]
C#[--------------------------------------]
G#[--------------------------------------]x2
C#[--------------------------------------]


5isakoolnumber - 2006-11-30

u got almost all of it right
good job ,god bless


Godlyguitar60 - 2008-12-18

err...one question, for us people new to different tuning could you please tell me how you get that special type of tuning??


Add a comment/correction

Complimentary Christian Ringtones
Dadamobile and CGR have teamed up to bring your favorite Christian artists right to your phone. Sign up today and get 10 complementary ringtones!
Tab Country
Did you know CGR has a sister site w/ country guitar tabs? Well we do! Its called Tab Country. It has a great archive with a lot of country tabs.
Rockin Tabs
Are you looking for a site that has rock guitar tabs? Then Rockintabs.com is the place for you. It is a budding site with many rock guitar tabs. Submit your tab today.
Tab Gallery
Tab Gallery has a compilation of christian, rock, and country tabs all in one place. Come visit us.