Guitar Tabs
song title    band name

Join Us Today!

Don't strum alone...
be a part of the largest online Christian music community. Browse thousands of guitar tabs and chat w/ musicians like yourself.


It's Free!

This tab has been rated a 5.00 out of 5 for accuracy. (1 vote)Sorry, but you must be logged in to rate this tab.
Click here to log-in, or you can click here to register.
(Registration is free)

All songs owned by corresponding publishing company. If you make copies of any song on this website, be sure to report your usage to CCLI.
Submitted by: Danny kolb

Suddenly mabye       
Radial Angel

       E-0-0-0-x-0-0-0-0-x-0-0/
Intro  B-0-0-0-x-0-0-0-0-x-0-0/
       D-5-5-5-x-5-2-2-2-x-2-2/--x2
       G-5-5-5-x-5-3-3-3-x-3-3/
       A-3-3-3-x-3-3-3-3-x-3-3/
       E-x-x-x-x-x-1-1-1-x-1-1/

Verse is the same as the intro


Before the Chorus starts they play this

        E 
        B
Chorus  G
        D-----5-----0-----5-----5
        A---3-----3-----3-----3 
        E-o-----1-----0-----1 

Then the HArd Chorus Is just

 E-0-0-------0-0-0
 B-0-0-------0-0-0
 G-5-5---(x9)0-0-0-x-3---5~7-4
 D-5-5-------3-3-3-x-3---x-x-x
 A-3-3-------3-3-3-x-3---3~5~2
 E-x---------1-1-1-x-1

ending Solo

E-----------------------------------------------
B-13--13---15~17~13-13-13-13------------15~17~13
G---12--12-------------12~~~10---10-------------   
D-----------------------------------------------
A------------------------------8-----8----------
E-----------------------------------------------

E-------------15--------15----15---------------------------
B-13---13--------13--13----13----13--13--------------------
G---12----12------12---------------12---12~10-10----15~17~13
D----------------------------------------------------------
A-------------------------------------------8---8----------
E----------------------------------------------------------


Thats pretty close to the cd..I'm not to sure about the solo, there seems to be something
i'm missing in the middle of the solo..
I can't believe noone put this song in here yet!! well i guess i'm the first.
God bless every one...
DAnny kolb, from the small town of Williamsport pa.
   

2000-2004 Radial Angel. All Rights Reserved. 

Comments about this tab

Danny kolb - 2005-02-10

To listen to this song go to their home page at http://www.radialangel.com/


Radial_Jared - 2007-03-07

Dont forget to tune to Drop D for this song....


Add a comment/correction

Complimentary Christian Ringtones
Dadamobile and CGR have teamed up to bring your favorite Christian artists right to your phone. Sign up today and get 10 complementary ringtones!
Tab Country
Did you know CGR has a sister site w/ country guitar tabs? Well we do! Its called Tab Country. It has a great archive with a lot of country tabs.
Rockin Tabs
Are you looking for a site that has rock guitar tabs? Then Rockintabs.com is the place for you. It is a budding site with many rock guitar tabs. Submit your tab today.
Tab Gallery
Tab Gallery has a compilation of christian, rock, and country tabs all in one place. Come visit us.