Guitar Tabs
song title    band name

Join Us Today!

Don't strum alone...
be a part of the largest online Christian music community. Browse thousands of guitar tabs and chat w/ musicians like yourself.


It's Free!

This tab has been rated a 2.00 out of 5 for accuracy. (4 votes)Sorry, but you must be logged in to rate this tab.
Click here to log-in, or you can click here to register.
(Registration is free)

All songs owned by corresponding publishing company. If you make copies of any song on this website, be sure to report your usage to CCLI.
Submitted by: macneb

we like this tab a little better than the one posted!
Day Of Fire 
Song----Detainer
Album---Day Of Fire
Song----Joshua Brown and Gregg Hionis
Music---Joshua Brown and Gregg Hionis
Tabbed By---Ben & Mack- The Firestarters

Tuning is standard
Starting with the std. power bar cord in f# to G .


|||    |||     |||     |||     |||     |||     |||     |||
F#	G	F#	G	F#	G	F#	G
-----------------------------------------------------------------|
-----------------------------------------------------------------|
-----------------------------------------------------------------|
-----------------------------------------------------------------|						
-444----555-----444----555------444-----555-----444----555-------|
-222----333-----222----333------222-----333-----222----333-------|
Do this 3 x
.             Palm mute as you sing.


     ||                             ||              Follow up
F# major     E minor	A major	  C# Major
-------------------------------------------|-----------------------|
-------------------------------------------|-----------------------|	
-------------------------------------------|-----------------------|	
---------------2---------------------------|-----------------------|			
-4-------------2----------7-----------11---|---11---10--9--7-------|
-2------------------------5------------9---|----9----8--7--5-------|

Do this 2x (the chorus)


Back to start (both stanzas, 1 more time thru): Then in to a slow picked, full bar cord  
F# major, E minor, A major , C# major, 
same progression as the chorus, 
 

F#     Em           A      C#       F#     Em        A     C#
Sing                   


Have Fun impress your friends. you can Christin rock. 

Comments about this tab

disciple_777 - 2005-01-29

Sorry guys, the chord progression returns to E5 after every F#5 and G5 is played. Also, I don't think the chords are quite right in the bridge.. And it's easier and more practical to play in Dropped D. I think my tab was extremely close... Give it a try... Hope you can make it work...


mad_on_guitars - 2005-01-30

yeah man its not too correct...good work tho... the closest is the one already posted...ps for a GREG effect (lol) he plays the final chord/chords of the chorus
----------- ----------------------
----------- ----------------------
----------- -------2---------------
-11-10-9-7- as -6-5-4-2---------------
-11-10-9-7- -4-3-2-0---------------
-11-10-9-7- ----------------------
makes no difference in the sound tho


mad_on_guitars - 2005-01-30

ew that didnt work...
it was ment to be bar chords on the A string ya see


Add a comment/correction

Complimentary Christian Ringtones
Dadamobile and CGR have teamed up to bring your favorite Christian artists right to your phone. Sign up today and get 10 complementary ringtones!
Tab Country
Did you know CGR has a sister site w/ country guitar tabs? Well we do! Its called Tab Country. It has a great archive with a lot of country tabs.
Rockin Tabs
Are you looking for a site that has rock guitar tabs? Then Rockintabs.com is the place for you. It is a budding site with many rock guitar tabs. Submit your tab today.
Tab Gallery
Tab Gallery has a compilation of christian, rock, and country tabs all in one place. Come visit us.