Guitar Tabs
song title    band name

Join Us Today!

Don't strum alone...
be a part of the largest online Christian music community. Browse thousands of guitar tabs and chat w/ musicians like yourself.


It's Free!

This tab has been rated a 4.00 out of 5 for accuracy. (1 vote)Sorry, but you must be logged in to rate this tab.
Click here to log-in, or you can click here to register.
(Registration is free)

All songs owned by corresponding publishing company. If you make copies of any song on this website, be sure to report your usage to CCLI.
Submitted by: iamthemetalking

Accoustic bridge
Burn the End
Album: The Hammering Process
by Living Sacrifice
on Solid State Records

tabbed by Sean, iamthemetalking,
email me at kasper.donut@gmail.com 
for comments/corrections.

this is as close as I could get it, the other 
version is completely off (the notes do
not match up with the timing)  my version has VERY
minor differences, and if played right, the timing is 
is also correct. 


tuning: drop d flat.

(you must figure out how many times to strum each progression.)

for the last chord, you must 
also figure out the picking that Rocky does...i am at 
this point to lazy to write it out as it is very easy.

e--7--0---9--0---5-(pick)--7--0---h7--7--0---5-(pick)------
b--8--10--8--10--5-(pick)--8--10--p8--8--10--5-(pick)------
g--9--9---7--9---7-(pick)--9--9-------9--9---7-(pick)------
d----------------7-(pick)--------------------7-(pick)------
a----------------------------------------------------------
D----------------------------------------------------------




e----------------------------------------------------------------
b--12---12-13-15-13-12-13-12h13p12\10-12-10----------15----------
g-------------------------------------------12-11-12----12-11----
d-------------------------------------------------------------14~~-
a----------------------------------------------------------------
D----------------------------------------------------------------



e-----------------------------------------------------
b-----------------------15-------13-------12----------
g----11-11h12p11--11h12----12-11----12-11----12-11----
d-14--------------------------------------------------
a-----------------------------------------------------
D-----------------------------------------------------


e--------------------------------------------------------------
b--10----------------------------------------------------------
g-----12-11----9-12-9-11-11h12p9--11h12p11-11h12p9--------11-9~~-
d-----------12--------------------------------------12-12------
a--------------------------------------------------------------
D--------------------------------------------------------------

e------------------------------------------------------------
b---------12--------------------------12---------------------
g-9-11-12----11-14-12-11-7/9--9-11-12----11-14-12-9-9-14-----
d------------------------------------------------------------
a------------------------------------------------------------
D------------------------------------------------------------

e----------------------------------------------------------------
b--10-12-13-13h15-13-12-13-13-12h13p12p10--12----------15--------
g---------------------------------------------12-11-12----12-11--
d----------------------------------------------------------------
a----------------------------------------------------------------
D----------------------------------------------------------------

e----------------------------------------------------------------------------
b---13-----------------------------------------------------------------------
g------12-11-12-11h12p11-----11----------------------------------------------
d-----------------------14-12---14----------------------3-2------------------
a-------------------------------------------------3-2-0-----2-3-0------------
D----------------------------------Distortion--on-----------------4-0--------

and the rest of the song is relatively simple, just mixing up old riffs at different
octaves, and what not. 

Comments about this tab

No comments/corrections found. Add your own

Complimentary Christian Ringtones
Dadamobile and CGR have teamed up to bring your favorite Christian artists right to your phone. Sign up today and get 10 complementary ringtones!
Tab Country
Did you know CGR has a sister site w/ country guitar tabs? Well we do! Its called Tab Country. It has a great archive with a lot of country tabs.
Rockin Tabs
Are you looking for a site that has rock guitar tabs? Then Rockintabs.com is the place for you. It is a budding site with many rock guitar tabs. Submit your tab today.
Tab Gallery
Tab Gallery has a compilation of christian, rock, and country tabs all in one place. Come visit us.