Guitar Tabs
song title    band name

Join Us Today!

Don't strum alone...
be a part of the largest online Christian music community. Browse thousands of guitar tabs and chat w/ musicians like yourself.


It's Free!

This tab has been rated a 4.50 out of 5 for accuracy. (2 votes)Sorry, but you must be logged in to rate this tab.
Click here to log-in, or you can click here to register.
(Registration is free)

All songs owned by corresponding publishing company. If you make copies of any song on this website, be sure to report your usage to CCLI.
Song: Vendetta!
Album: Brace Yourself for the Mediocre
Artist: Roper
Tuning: Drop D

Note: These chords aren't all perfect. I just came as close as I could with 
simple power-chords.


Intro:
E|------------------------------------------------------------------
B|------------------------------------------------------------------
G|------------------------------------------------------------------
D|14-14-13-14-14---14-14-13-14-14--9-7-7-7-7-7-7-7-7-7-7-7-7-7-7-7-7
A|14-14-13-14-14---14-14-13-14-14--9-7-7-7-7-7-7-7-7-7-7-7-7-7-7-7-7
D|14-14-13-14-14---14-14-13-14-14--9-7-7-7-7-7-7-7-7-7-7-7-7-7-7-7-7

------------------------------------------------------------------
------------------------------------------------------------------
------------------------------------------------------------------
14-14-13-14-14---14-14-13-14-14--9-7-7-7-7-7-7-7-7-7-7-7-7-7-7-7-7
14-14-13-14-14---14-14-13-14-14--9-7-7-7-7-7-7-7-7-7-7-7-7-7-7-7-7
14-14-13-14-14---14-14-13-14-14--9-7-7-7-7-7-7-7-7-7-7-7-7-7-7-7-7


Verse:
-------------------------------------------------------------------
-------------------------------------------------------------------
-------------------------------------------------------------------
14-14-14-14-14-14-14-14-14-14-14-14-7-7-7-7-7-7-7-7-7-7-7-7-7-7-7-7
14-14-14-14-14-14-14-14-14-14-14-14-7-7-7-7-7-7-7-7-7-7-7-7-7-7-7-7
14-14-14-14-14-14-14-14-14-14-14-14-7-7-7-7-7-7-7-7-7-7-7-7-7-7-7-7

-------------------------------------------------------------------
-------------------------------------------------------------------
-------------------------------------------------------------------
14-14-14-14-14-14-14-14-14-14-14-14-7-7-7-7-7-7-7-7-7-7-7-7-7-7-7-7
14-14-14-14-14-14-14-14-14-14-14-14-7-7-7-7-7-7-7-7-7-7-7-7-7-7-7-7
14-14-14-14-14-14-14-14-14-14-14-14-7-7-7-7-7-7-7-7-7-7-7-7-7-7-7-7

-----------------------------------------------------------------------
-----------------------------------------------------------------------
-----------------------------------------------------------------------
9-9-9-9-9-9-9-9-14-14-14-14-14-14-14-14-7-7-7-7-7-7-7-7-7-7-7-7-7-7-7-7
9-9-9-9-9-9-9-9-14-14-14-14-14-14-14-14-7-7-7-7-7-7-7-7-7-7-7-7-7-7-7-7
9-9-9-9-9-9-9-9-14-14-14-14-14-14-14-14-7-7-7-7-7-7-7-7-7-7-7-7-7-7-7-7

-----------------------------------------------------------------------
-----------------------------------------------------------------------
-----------------------------------------------------------------------
9-9-9-9-9-9-9-9-14-14-14-14-14-14-14-14-7-7-7-7-7-7-7-7-7-7-7-7-7-7-7-7
9-9-9-9-9-9-9-9-14-14-14-14-14-14-14-14-7-7-7-7-7-7-7-7-7-7-7-7-7-7-7-7
9-9-9-9-9-9-9-9-14-14-14-14-14-14-14-14-7-7-7-7-7-7-7-7-7-7-7-7-7-7-7-7

-------------------------------
-------------------------------
-------------------------------
7-7-7-7-7-7-7-7-7-7-7-7-7-7-7-7
7-7-7-7-7-7-7-7-7-7-7-7-7-7-7-7
7-7-7-7-7-7-7-7-7-7-7-7-7-7-7-7


Pre-Chorus:
---------------------------------------------------------------
---------------------------------------------------------------
---------------------------------------------------------------
2-2-2-2-2-2-2-2-2-2-2-2-2-2-2-2-9-9-9-9-9-9-9-9-9-9-9-9-9-9-9-9
2-2-2-2-2-2-2-2-2-2-2-2-2-2-2-2-9-9-9-9-9-9-9-9-9-9-9-9-9-9-9-9
2-2-2-2-2-2-2-2-2-2-2-2-2-2-2-2-9-9-9-9-9-9-9-9-9-9-9-9-9-9-9-9

---------------------------------------------------------------
---------------------------------------------------------------
---------------------------------------------------------------
2-2-2-2-2-2-2-2-2-2-2-2-2-2-2-2-7-7-7-7-7-7-7-7-7-7-7-7-7-7-7-7
2-2-2-2-2-2-2-2-2-2-2-2-2-2-2-2-7-7-7-7-7-7-7-7-7-7-7-7-7-7-7-7
2-2-2-2-2-2-2-2-2-2-2-2-2-2-2-2-7-7-7-7-7-7-7-7-7-7-7-7-7-7-7-7

------------------------------------------------------------------
------------------------------------------------------------------
------------------------------------------------------------------
14-14-13-14-14---14-14-13-14-14--9-7-7-7-7-7-7-7-7-7-7-7-7-7-7-7-7
14-14-13-14-14---14-14-13-14-14--9-7-7-7-7-7-7-7-7-7-7-7-7-7-7-7-7
14-14-13-14-14---14-14-13-14-14--9-7-7-7-7-7-7-7-7-7-7-7-7-7-7-7-7

------------------------------------------------------------------
------------------------------------------------------------------
------------------------------------------------------------------
------------------------------------------------------------------
14-14-13-14-14---14-14-13-14-14--9-7-7-7-7-7-7-7-7-7-7-7-7-7-7-7-7
14-14-13-14-14---14-14-13-14-14--9-7-7-7-7-7-7-7-7-7-7-7-7-7-7-7-7
14-14-13-14-14---14-14-13-14-14--9-7-7-7-7-7-7-7-7-7-7-7-7-7-7-7-7


-------------------------------------------------------------------
-------------------------------------------------------------------
---x--x--x--x--x--x--x--x--x--x--x----x-x-x-x-x-x-x-x-x-x-x-x-x-x-x
14-14-14-14-14-14-14-14-14-14-14-14-7-7-7-7-7-7-7-7-7-7-7-7-7-7-7-7
14-14-14-14-14-14-14-14-14-14-14-14-7-7-7-7-7-7-7-7-7-7-7-7-7-7-7-7
14-14-14-14-14-14-14-14-14-14-14-14-7-7-7-7-7-7-7-7-7-7-7-7-7-7-7-7


-------------------------------------------------------------------
-------------------------------------------------------------------
---x--x--x--x--x--x--x--x--x--x--x----x-x-x-x-x-x-x-x-x-x-x-x-x-x-x
14-14-14-14-14-14-14-14-14-14-14-14-7-7-7-7-7-7-7-7-7-7-7-7-7-7-7-7
14-14-14-14-14-14-14-14-14-14-14-14-7-7-7-7-7-7-7-7-7-7-7-7-7-7-7-7
14-14-14-14-14-14-14-14-14-14-14-14-7-7-7-7-7-7-7-7-7-7-7-7-7-7-7-7

-------------------------------------------------------------------
-------------------------------------------------------------------
-------------------------------------------------------------------
14-14-14-14-14-14-14-14-14-14-14-14-7-7-7-7-7-7-7-7-7-7-7-7-7-7-7-7
14-14-14-14-14-14-14-14-14-14-14-14-7-7-7-7-7-7-7-7-7-7-7-7-7-7-7-7
14-14-14-14-14-14-14-14-14-14-14-14-7-7-7-7-7-7-7-7-7-7-7-7-7-7-7-7

-------------------------------------------------------------------
-------------------------------------------------------------------
-------------------------------------------------------------------
14-14-14-14-14-14-14-14-14-14-14-14-7-7-7-7-7-7-7-7-7-7-7-7-7-7-7-7
14-14-14-14-14-14-14-14-14-14-14-14-7-7-7-7-7-7-7-7-7-7-7-7-7-7-7-7
14-14-14-14-14-14-14-14-14-14-14-14-7-7-7-7-7-7-7-7-7-7-7-7-7-7-7-7

-----------------------------------------------------------------------
-----------------------------------------------------------------------
-----------------------------------------------------------------------
9-9-9-9-9-9-9-9-14-14-14-14-14-14-14-14-7-7-7-7-7-7-7-7-7-7-7-7-7-7-7-7
9-9-9-9-9-9-9-9-14-14-14-14-14-14-14-14-7-7-7-7-7-7-7-7-7-7-7-7-7-7-7-7
9-9-9-9-9-9-9-9-14-14-14-14-14-14-14-14-7-7-7-7-7-7-7-7-7-7-7-7-7-7-7-7

-----------------------------------------------------------------------
-----------------------------------------------------------------------
-----------------------------------------------------------------------
9-9-9-9-9-9-9-9-14-14-14-14-14-14-14-14-7-7-7-7-7-7-7-7-7-7-7-7-7-7-7-7
9-9-9-9-9-9-9-9-14-14-14-14-14-14-14-14-7-7-7-7-7-7-7-7-7-7-7-7-7-7-7-7
9-9-9-9-9-9-9-9-14-14-14-14-14-14-14-14-7-7-7-7-7-7-7-7-7-7-7-7-7-7-7-7

-----------------------------------------------------------------------
-----------------------------------------------------------------------
-----------------------------------------------------------------------
9-9-9-9-9-9-9-9-14-14-14-14-14-14-14-14-7-7-7-7-7-7-7-7-7-7-7-7-7-7-7-7
9-9-9-9-9-9-9-9-14-14-14-14-14-14-14-14-7-7-7-7-7-7-7-7-7-7-7-7-7-7-7-7
9-9-9-9-9-9-9-9-14-14-14-14-14-14-14-14-7-7-7-7-7-7-7-7-7-7-7-7-7-7-7-7

-------------------------------
-------------------------------
----------------6-------9------
7-7-7-7-7-7-7-7-7-7-7-7-7-7-7-7
7-7-7-7-7-7-7-7-7-7-7-7-7-7-7-7
7-7-7-7-7-7-7-7-7-7-7-7-7-7-7-7


Pre-Chorus:
---------------------------------------------------------------
---------------------------------------------------------------
---------------------------------------------------------------
2-2-2-2-2-2-2-2-2-2-2-2-2-2-2-2-9-9-9-9-9-9-9-9-9-9-9-9-9-9-9-9
2-2-2-2-2-2-2-2-2-2-2-2-2-2-2-2-9-9-9-9-9-9-9-9-9-9-9-9-9-9-9-9
2-2-2-2-2-2-2-2-2-2-2-2-2-2-2-2-9-9-9-9-9-9-9-9-9-9-9-9-9-9-9-9

---------------------------------------------------------------
---------------------------------------------------------------
---------------------------------------------------------------
2-2-2-2-2-2-2-2-2-2-2-2-2-2-2-2-7-7-7-7-7-7-7-7-7-7-7-7-7-7-7-7
2-2-2-2-2-2-2-2-2-2-2-2-2-2-2-2-7-7-7-7-7-7-7-7-7-7-7-7-7-7-7-7
2-2-2-2-2-2-2-2-2-2-2-2-2-2-2-2-7-7-7-7-7-7-7-7-7-7-7-7-7-7-7-7

---------------------------------------------------------------
---------------------------------------------------------------
---------------------------------------------------------------
2-2-2-2-2-2-2-2-2-2-2-2-2-2-2-2-9-9-9-9-9-9-9-9-9-9-9-9-9-9-9-9
2-2-2-2-2-2-2-2-2-2-2-2-2-2-2-2-9-9-9-9-9-9-9-9-9-9-9-9-9-9-9-9
2-2-2-2-2-2-2-2-2-2-2-2-2-2-2-2-9-9-9-9-9-9-9-9-9-9-9-9-9-9-9-9

---------------------------------------------------------------
---------------------------------------------------------------
---------------------------------------------------------------
2-2-2-2-2-2-2-2-2-2-2-2-2-2-2-2-7-7-7-7-7-7-7-7-7-7-7-7-7-7-7-7
2-2-2-2-2-2-2-2-2-2-2-2-2-2-2-2-7-7-7-7-7-7-7-7-7-7-7-7-7-7-7-7
2-2-2-2-2-2-2-2-2-2-2-2-2-2-2-2-7-7-7-7-7-7-7-7-7-7-7-7-7-7-7-7


Bridge:
-------------------------------------------------------------
-------------------------------------------------------------
---x-x-x-x-x-x-x-x-x-x-x-x-x-x----x-x-x-x-x-x-x-x-x-x-x-x-x-x
2--2-2-2-2-2-2-2-2-2-2-2-2-2-2-2--2-2-2-2-2-2-2-2-2-2-2-2-2-2
2--2-2-2-2-2-2-2-2-2-2-2-2-2-2-2--2-2-2-2-2-2-2-2-2-2-2-2-2-2
2--2-2-2-2-2-2-2-2-2-2-2-2-2-2-2--2-2-2-2-2-2-2-2-2-2-2-2-2-2

------------------------------------------------
------------------------------------------------
------------------------------------------------
2--2-2-2-2--2--2-2-2-0--2--2-2-2----2--2-2-2----
2--2-2-2----2--2-2-2----2--2-2-2-4--2--2-2-2-3--
2--2-2-2----2--2-2-2----2--2-2-2----2--2-2-2----

------------------------------------------------
------------------------------------------------
------------------------------------------------
2--2-2-2-2--2--2-2-2-0--2--2-2-2----2--2-2-2----
2--2-2-2----2--2-2-2----2--2-2-2-4--2--2-2-2-3--
2--2-2-2----2--2-2-2----2--2-2-2----2--2-2-2----

(Solo plays here, I'll try to tab it later)
------------------------------------------------
------------------------------------------------
------------------------------------------------
2--2-2-2-2--2--2-2-2-0--2--2-2-2----2--2-2-2----
2--2-2-2----2--2-2-2----2--2-2-2-4--2--2-2-2-3--
2--2-2-2----2--2-2-2----2--2-2-2----2--2-2-2----

------------------------------------------------
------------------------------------------------
------------------------------------------------
2--2-2-2-2--2--2-2-2-0--2--2-2-2----2--2-2-2----
2--2-2-2----2--2-2-2----2--2-2-2-4--2--2-2-2-3--
2--2-2-2----2--2-2-2----2--2-2-2----2--2-2-2----

Pre-Chorus:
---------------------------------------------------------------
---------------------------------------------------------------
---------------------------------------------------------------
2-2-2-2-2-2-2-2-2-2-2-2-2-2-2-2-7-7-7-7-7-7-7-7-7-7-7-7-7-7-7-7
2-2-2-2-2-2-2-2-2-2-2-2-2-2-2-2-7-7-7-7-7-7-7-7-7-7-7-7-7-7-7-7
2-2-2-2-2-2-2-2-2-2-2-2-2-2-2-2-7-7-7-7-7-7-7-7-7-7-7-7-7-7-7-7

---------------------------------------------------------------
---------------------------------------------------------------
---------------------------------------------------------------
2-2-2-2-2-2-2-2-2-2-2-2-2-2-2-2-7-7-7-7-7-7-7-7-7-7-7-7-7-7-7-7
2-2-2-2-2-2-2-2-2-2-2-2-2-2-2-2-7-7-7-7-7-7-7-7-7-7-7-7-7-7-7-7
2-2-2-2-2-2-2-2-2-2-2-2-2-2-2-2-7-7-7-7-7-7-7-7-7-7-7-7-7-7-7-7

---------------------------------------------------------------
---------------------------------------------------------------
---------------------------------------------------------------
2-2-2-2-2-2-2-2-2-2-2-2-2-2-2-2-7-7-7-7-7-7-7-7-7-7-7-7-7-7-7-7
2-2-2-2-2-2-2-2-2-2-2-2-2-2-2-2-7-7-7-7-7-7-7-7-7-7-7-7-7-7-7-7
2-2-2-2-2-2-2-2-2-2-2-2-2-2-2-2-7-7-7-7-7-7-7-7-7-7-7-7-7-7-7-7

---------------------------------------------------------------
---------------------------------------------------------------
---------------------------------------------------------------
2-2-2-2-2-2-2-2-2-2-2-2-2-2-2-2-7-7-7-7-7-7-7-7-7-7-7-7-7-7-7-7
2-2-2-2-2-2-2-2-2-2-2-2-2-2-2-2-7-7-7-7-7-7-7-7-7-7-7-7-7-7-7-7
2-2-2-2-2-2-2-2-2-2-2-2-2-2-2-2-7-7-7-7-7-7-7-7-7-7-7-7-7-7-7-7

Chorus:
------------------------------------------------------------------
------------------------------------------------------------------
------------------------------------------------------------------
14-14-13-14-14---14-14-13-14-14--9-7-7-7-7-7-7-7-7-7-7-7-7-7-7-7-7
14-14-13-14-14---14-14-13-14-14--9-7-7-7-7-7-7-7-7-7-7-7-7-7-7-7-7
14-14-13-14-14---14-14-13-14-14--9-7-7-7-7-7-7-7-7-7-7-7-7-7-7-7-7

------------------------------------------------------------------
------------------------------------------------------------------
------------------------------------------------------------------
14-14-13-14-14---14-14-13-14-14--9-7-7-7-7-7-7-7-7-7-7-7-7-7-7-7-7
14-14-13-14-14---14-14-13-14-14--9-7-7-7-7-7-7-7-7-7-7-7-7-7-7-7-7
14-14-13-14-14---14-14-13-14-14--9-7-7-7-7-7-7-7-7-7-7-7-7-7-7-7-7

The song ends with a nice riff that resembles the bridge/solo. I'll tab 
it if I tab the solo.

Comments about this tab

calazoid - 2005-02-06

nice tabbing!


irontones13 - 2005-02-09

it's right but it's not in drop d. byrnside posted it on the roaperboard
http://www.roperisdumb.com/roperboard/viewtopic.php?t=6632&start=105


Add a comment/correction

Complimentary Christian Ringtones
Dadamobile and CGR have teamed up to bring your favorite Christian artists right to your phone. Sign up today and get 10 complementary ringtones!
Tab Country
Did you know CGR has a sister site w/ country guitar tabs? Well we do! Its called Tab Country. It has a great archive with a lot of country tabs.
Rockin Tabs
Are you looking for a site that has rock guitar tabs? Then Rockintabs.com is the place for you. It is a budding site with many rock guitar tabs. Submit your tab today.
Tab Gallery
Tab Gallery has a compilation of christian, rock, and country tabs all in one place. Come visit us.