Guitar Tabs
song title    band name

Join Us Today!

Don't strum alone...
be a part of the largest online Christian music community. Browse thousands of guitar tabs and chat w/ musicians like yourself.


It's Free!

This tab has been rated a 2.50 out of 5 for accuracy. (2 votes)Sorry, but you must be logged in to rate this tab.
Click here to log-in, or you can click here to register.
(Registration is free)

All songs owned by corresponding publishing company. If you make copies of any song on this website, be sure to report your usage to CCLI.
Submitted by: emery90210

this isn't the entire tab but it'll get you started. I can't find this song
anywhere so i had to do it myself. So here goes. 
Tuning: Drop-D
* p.m.
                             INTRO
e/--------------------------------------------------------------------------\
b\--------------------------------------------------------------------------/
g/--------------------------------------------------------------------------\
d\--------------------------------------------------------------------------/
a/--5-5-5-5-5-5-5-5-6-6-6-6-6-6-6-6-7-7-7-7-7-7-7-7-5-5-5-5-5-5-5-5---------\
D\--------------------------------------------------------------------------/
    * * * * * * * * * * * * * * * * * * * * * * * * * * * * * * * * 

This uses harmonics so i'll put an h under the harmonic notes

e/------------------------\
b\------------------------/
g/------------------------\
d\---4-4-4-4-7-7-7-7-0----/ x4
a/---4-4-4-4-7-7-7-7-0----\
D\---4-4-4-4-7-7-7-7-0----/
             h h h h

                                VERSE
e\-------------------------------------------------------------\
b/-------------------------------------------------------------/
g\---11-11-xx-11-11-xx-11-11-xx-11-11-xx-11-11-xx-11-11--------\
d/---x--x--xx-x--x--xx-x--x--xx-x--x--xx-x--x--xx-x--x----0-4-3/
a\---9--9--xx-9--9--xx-9--9--xx-9--9--xx-9--9--xx-9--9----0-4-3\
D/--------------------------------------------------------0-4-3/

                           PRECHORUS
e\-----------------------------------------------------------------------/
b/-----------------------------------------------------------------------\
g\-----------------------------------------------------------------------/
d/-----------------------------------------------------------------------\
a\-3333333333333333-5555555555555555-7777777777777777-9999999999999999---/
D/-3333333333333333-5555555555555555-7777777777777777-9999999999999999---\
   **************** **************** **************** ****************

                              CHORUS
e\--3-3-3333-5-5-5555-7-7-7777-9--9--8--/
b/--3-3-3333-5-5-5555-7-7-7777-9--9--8--\
g\--5-5-5555-7-7-7777-9-9-9999-11-11-10-/
d/--3-3-3333-5-5-5555-7-7-7777-9--9--8--\ x2
a\--3-3-3333-5-5-5555-7-7-7777-9--9--8--/
D/--3-3-3333-5-5-5555-7-7-7777-9--9--8--\

well theres a bridge which is 7-9-11-13 frets on the low D string, with a wha
effect. ya so you can figure out the rest i know its not 100% correct but its 
close. Good luck if anyone needs any other songs tabbed just email me.
Tabbed by: m.brown

Comments about this tab

smashing guitar - 2005-02-01

Thats pretty acurate. But im not shure im hearing another chord in the intro. Is this any closer?

d--4-4-4---7-7-7---4-4-4---0-
a--4-4-4---7-7-7---4-4-4---0-
D--4-4-4---7-7-7---4-4-4---0-


BrownieBoy623 - 2005-02-04

Ya I relized that after i did it thanks for adding that. Go Buy anberlisn' next cd i'm working on tabbing that one too.
m.brown


aznguitarist28 - 2005-02-05

i think the verse goes like this
-----------------------
-----------------------
---11-11-xx-11-11------
...---x--x--xx-x--x--0-4-2
---9--9--xx-9--9--0-4-2
------------------0-4-2

and the little riff before the chrous like this
------------------------------------
------------------------------------
------------------------------------
------------------------------------
-----4---4--44-4------44----44-4-4--
-0000-000-00--0-0--222--2222--2-2-2-

it is very syncopated but im sure this is correct
the second time around is an octave above

------------------------------------
------------------------------------
----22--222--2------22--222-22------
-000--00---00-0--222--22---2--2-----
------------------------------------
------------------------------------


Add a comment/correction

Complimentary Christian Ringtones
Dadamobile and CGR have teamed up to bring your favorite Christian artists right to your phone. Sign up today and get 10 complementary ringtones!
Tab Country
Did you know CGR has a sister site w/ country guitar tabs? Well we do! Its called Tab Country. It has a great archive with a lot of country tabs.
Rockin Tabs
Are you looking for a site that has rock guitar tabs? Then Rockintabs.com is the place for you. It is a budding site with many rock guitar tabs. Submit your tab today.
Tab Gallery
Tab Gallery has a compilation of christian, rock, and country tabs all in one place. Come visit us.