Guitar Tabs
song title    band name

Join Us Today!

Don't strum alone...
be a part of the largest online Christian music community. Browse thousands of guitar tabs and chat w/ musicians like yourself.


It's Free!

This tab has been rated a 5.00 out of 5 for accuracy. (2 votes)Sorry, but you must be logged in to rate this tab.
Click here to log-in, or you can click here to register.
(Registration is free)

All songs owned by corresponding publishing company. If you make copies of any song on this website, be sure to report your usage to CCLI.
Submitted by: 21Frets

Song:   Who
Artist: Newsboys
Album:  Shine the Hits
Tabbed by: Mark Muha
 This is a great song but I couldn't really find a good
version of it anywhere, mainly because it is a hard song 
play at all. This song is the way I play the song this is
not the way the Newsboys play it. It is the same song but 
written more for a guitar. The Newsboys version was more 
of a full band with a bass and keyboard type of song. 
I couldn't have done this song without the other tab
on this site. Thanks.    Mark Muha 

                     Intro
E|-------------------------------------------------------------------
B|-------------------------------------------------------------------
G|-------------------------------------------------------------------
D|-2--2---5--5--7---2--2---5--5--7---2--2---5--5--7---2--2---5--5--7-
A|-2--2---5--5--7---2--2---5--5--7---2--2---5--5--7---2--2---5--5--7-
E|-0--0---3--3--5---0--0---3--3--5---0--0---3--3--5---0--0---3--3--5-

                        Verse (2x)
E|------------------------------------------
B|------------------------------------------
G|---------------------4-4-4-4-x-4-4-4-4-x/-
D|-2-2-2-2-x-2-2-2-2-x-4-4-4-4-x-4-4-4-4-x/-
A|-2-2-2-2-x-2-2-2-2-x-2-2-2-2-x-2-2-2-2-x/-
E|-0-0-0-0-x-0-0-0-0-x----------------------
   PM^^^^^^^^^^^^^^^^^^^^^^^^^^^^^^^^^^^^^^^
                Verse (second half)
E|------------------------------------------
B|------------------------------------------
G|-9-9-9-9-x-9-9-9-9-\-4-4-4-4-x-4-4-4-4-x--
D|-9-9-9-9-x-9-9-9-9-\-4-4-4-4-x-4-4-4-4-x--
A|-7-7-7-7-x-7-7-7-7-\-2-2-2-2-x-2-2-2-2-x--
E|------------------------------------------
  PM^^^^^^^^^^^^^^^^^^^^^^^^^^^^^^^^^^^^^^^^

   Verse Outro(slowly let up PM to distort)
E|------------------------------------------
B|------------------------------------------
G|-7--7-7--9--9-9--11-11-11-12-12-12-12-----
D|-7--7-7--9--9-9--11-11-11-12-12-12-12-----
A|-5--5-5--7--7-7--9--9--9--10-10-10-10-----
E|------------------------------------------
   PM^^^^^^^^^^^^^^ ^^ ^ ^^ ^ ^   ^
                 Chorus 
E|------------------------------------------
B|------------------------------------------
G|-5-5-5-5-5-5-5-5-x------------------------  3x
D|-5-5-5-5-5-5-5-5-x-5-5-5-5-5-5-5-5-x------
A|-3-3-3-3-3-3-3-3-x-5-5-5-5-5-5-5-5-x------
E|-------------------3-3-3-3-3-3-3-3-x------

                 Chorus outro (2x)
E|------------------------------------------
B|------------------------------------------
G|-----------5--5-x-5--7--7-7--7------------
D|-2--2-x-2--5--5-x-5--7--7-7--7------------
A|-2--2-x-2--3--3-x-3--5--5-5--5------------
E|-0--0-x-0---------------------------------

 Verse
 Chorus
 Intro
 Bridge
                Bridge(let ring)            
E|------------------------------------------
B|------------------------------------------
G|-------5--------5--------5----------------
D|-3--5--5--3--5--5--3--5--5---3--5---3--5--
A|-3--5--3--3--5--3--3--5--3---3--5---3--5--
E|-1--3-----1--3-----1--3------1--3---1--3--

Chorus (strike each chord once, let ring)
E|------------------------------------------
B|------------------------------------------
G|-5--------------5---------------5---------
D|-5------5-------5-------5-------5-------5-
A|-3------5-------3-------5-------3-------5-
E|--------3---------------3---------------3-
              Chorus outro (2x)
E|------------------------------------------
B|------------------------------------------
G|---------5--5-5--7--7-7--7----------------
D|-2--2-2--5--5-5--7--7-7--7----------------
A|-2--2-2--3--3-3--5--5-5--5----------------
E|-0--0-0-----------------------------------

Chorus (2x)
Ending
 (after second chorus do outro twice then ending)
                   Ending(let the last chord ring)          
E|------------------------------------------
B|------------------------------------------
G|--7--7-7--7-7--7-x------------------------
D|--7--7-7--7-7--7-x--5---------------------
A|--5--5-5--5-5--5-x--5---------------------
E|--------------------3---------------------

Thanks to Steve for the Intro. This song rocks. 
                                      Mark Muha/21Frets 

Comments about this tab

stevee2000 - 2006-03-03

awesome tab


Add a comment/correction

Complimentary Christian Ringtones
Dadamobile and CGR have teamed up to bring your favorite Christian artists right to your phone. Sign up today and get 10 complementary ringtones!
Tab Country
Did you know CGR has a sister site w/ country guitar tabs? Well we do! Its called Tab Country. It has a great archive with a lot of country tabs.
Rockin Tabs
Are you looking for a site that has rock guitar tabs? Then Rockintabs.com is the place for you. It is a budding site with many rock guitar tabs. Submit your tab today.
Tab Gallery
Tab Gallery has a compilation of christian, rock, and country tabs all in one place. Come visit us.