Guitar Tabs
song title    band name

Join Us Today!

Don't strum alone...
be a part of the largest online Christian music community. Browse thousands of guitar tabs and chat w/ musicians like yourself.


It's Free!

This tab has been rated a 5.00 out of 5 for accuracy. (4 votes)Sorry, but you must be logged in to rate this tab.
Click here to log-in, or you can click here to register.
(Registration is free)

All songs owned by corresponding publishing company. If you make copies of any song on this website, be sure to report your usage to CCLI.
Submitted by: rocker5673

12 STONES
THE WAY I FEEL

this is the second solo as of now it has still not been posted on the website  
cuz i have checked. So i took a try at it. I think this tab sounds 
pretty accurate. 
It is one of my first tabs so please let me know if its any good or total junk.
I think it sounds pretty good anyway. Any comments questions  corrections my 
email address is rocker5673@yahoo.com  Peace out the other 12 stones solo on 
this site is awesome check this song out 12 stones is great!


its in drop C so...

d---------------------------------------------------------------12-13-15-13-12-
a-----------------------------------------------------13-13-13-15--------------
f12b14r12--------10-------10-----10h12-10h12-14-12h14-------------------------
c---------12-10h12----10h12----10h12-------------------------------------------
g------------------------------------------------------------------------------
c------------------------------------------------------------------------------

d12-13-12-13b15r13-13p12----13-16-13-15b17r15-15b17r15-15b17r15-16b18r16-
a-------------------------15----------------------------------------------
f------------------------------------------------------------------------
c-------------------------------------------------------------------------
g-------------------------------------------------------------------------
c-------------------------------------------------------------------------

d-15-13-15-15p13-----13---
a----------------15-------
f-------------------------
c-------------------------
g-------------------------
c-------------------------

d--------------------------------10----------------------10---------------
a----15p13-15p13-10-13p10-------10---------------------10---13b15r13-13-10-
f------------------------12----------12p10---12b14r12---------------------
c----------------------------12-------------12-----------------------------
g--------------------------------------------------------------------------
c--------------------------------------------------------------------------

d-----------------------------------------------------
a-----------------------------------------------------
f12b14r12----12-12b14r12----12-10h12-10h12-12b14------
c----------12-------------12---------------------------
g------------------------------------------------------
c------------------------------------------------------

Comments about this tab

GodrulesWill777 - 2005-01-27

This song is played in drop C!


guitarist4life - 2005-01-28

Just drop each note by a whole step (or 2 frets). for a 10 on the e string, you would just play a 12.


njsk8rboy - 2005-01-29

very good except it's in DROP C!!!!!!!!!!!!!!!!!!!!!!!!!!!!!!


rocker5673 - 2005-02-05

sorrry to anyone who checked this tab sorry you guys!! thanks for the comments i realized that after i submitted it you are right it should all be played down two frets or whateva....lol... i play along with this song alot and i am too lazy to detune my guitar so i just play both solos two frets up lol sorry bout that but yea thanks for the comments and yes it should all be played two frets up cuz the song is in drop c


GuitarHero0007 - 2007-10-29

Do you guys know that therre is a new 12 stones CD out it is Anthem for the Underdog


Add a comment/correction

Complimentary Christian Ringtones
Dadamobile and CGR have teamed up to bring your favorite Christian artists right to your phone. Sign up today and get 10 complementary ringtones!
Tab Country
Did you know CGR has a sister site w/ country guitar tabs? Well we do! Its called Tab Country. It has a great archive with a lot of country tabs.
Rockin Tabs
Are you looking for a site that has rock guitar tabs? Then Rockintabs.com is the place for you. It is a budding site with many rock guitar tabs. Submit your tab today.
Tab Gallery
Tab Gallery has a compilation of christian, rock, and country tabs all in one place. Come visit us.