Guitar Tabs
song title    band name

Join Us Today!

Don't strum alone...
be a part of the largest online Christian music community. Browse thousands of guitar tabs and chat w/ musicians like yourself.


It's Free!

This tab has been rated a 3.00 out of 5 for accuracy. (1 vote)Sorry, but you must be logged in to rate this tab.
Click here to log-in, or you can click here to register.
(Registration is free)

All songs owned by corresponding publishing company. If you make copies of any song on this website, be sure to report your usage to CCLI.
Submitted by: ariaman

Song: Seven
Artist: East West
c2004 Floodgate Records
Tabbed by: Trevor Kirch

Drop B tuning

Ok, here's a pretty close version(i think), with most of the solo.

Verse

They use a keyboard or something, but this works for guitar.

B--10--7--14--5--
F#--8--5--12--3--
B---8--5--12--3--

Chorus

B---5-0-1-3-3-5-0-1-8-3-
F#--5-0-1-3-3-5-0-1-8-3-(x2)
B---5-0-1-3-3-5-0-1-8-3-

Solo

There's like 4 parts to it, listen to the song and you'll know what I mean. 
I could only figure out three parts. 

    Pt. 1                  Pt. 2              Pt. 4
C#-----------------------------------5---------------------------------------
G#-------------------------------------3-6-----------------------------------
E--------------------------3-5-8-5-5----------------------3-5-7-7-7/10-12/17-
B---0-3-5-0-3-5-7-7-7/0-3---------------------0-3-5-0-5-7--------------------
F#---------------------------------------------------------------------------
B----------------------------------------------------------------------------

(note: they may be hitting the notes more than I have them marked on here)

Bridge/Guitar part

E---12--9--12--9-----------12--9--12--9--------
B---x---x--x---x--0-7-8-0--x---x--x---x--0-0-0-
F#--10--7--10--7--0-7-8-0--10--7--10--7--0-0-0-  all x2
B-----------------0-7-8-0----------------0-0-0-
                                         x-x-x
                                         (p.m.)
Next...

B---7-8-0-
F#--7-8-0- many times
B---7-8-0-

there. that should be fairly close. If somebody could maybe figure out the 
rest of the solo, that would be cool.

Comments about this tab

keller - 2005-12-16

The verse and chorus are good but the brige and solo choke. No offense. I'l tab it myself eventually.
Best song by best christian band!


Add a comment/correction

Complimentary Christian Ringtones
Dadamobile and CGR have teamed up to bring your favorite Christian artists right to your phone. Sign up today and get 10 complementary ringtones!
Tab Country
Did you know CGR has a sister site w/ country guitar tabs? Well we do! Its called Tab Country. It has a great archive with a lot of country tabs.
Rockin Tabs
Are you looking for a site that has rock guitar tabs? Then Rockintabs.com is the place for you. It is a budding site with many rock guitar tabs. Submit your tab today.
Tab Gallery
Tab Gallery has a compilation of christian, rock, and country tabs all in one place. Come visit us.