Guitar Tabs
song title    band name

Join Us Today!

Don't strum alone...
be a part of the largest online Christian music community. Browse thousands of guitar tabs and chat w/ musicians like yourself.


It's Free!

This tab has been rated a 5.00 out of 5 for accuracy. (4 votes)Sorry, but you must be logged in to rate this tab.
Click here to log-in, or you can click here to register.
(Registration is free)

All songs owned by corresponding publishing company. If you make copies of any song on this website, be sure to report your usage to CCLI.
Submitted by: Penguin_Lover

Life of Praise
 by Casting Crowns

Intro
D,G

Verse 1
D,G,D,G 

A,G,D

A,G,Bm,A


Chorus

G,D,A,Bm 3X

G,D,A 

D,G

Verse 2

D,G,D,G 

A,G,D

A,G,Bm,A

Chorus 2X

Comments about this tab

Penguin_Lover - 2005-01-30

I want to know if this is correct, so give me input back... thanks \m/^_^\m/


Sundt - 2005-02-01

Only one problem- the first part of the chorus needs to be played 4x, not only 3x. Other than that- perfect.


Penguin_Lover - 2005-02-06

you can also play the little riff he does in the song like this...


E--3---3-
A--2---2-
D--0---0-
G--0---0-
B--0---1-
e--3---3-


Just play the chord with your 2,3,and 4 fingers, and listen to the song for the timing.

Rock on \m/^_^\m/


Penguin_Lover - 2005-02-06

The riff is played on the verse, and in the intro right after the D. so yea

\m/^_^\m/


Galen1 - 2005-02-10

This is basically correct, but in the song for the intro and on the verse they switch between Gsus and G.


NEWguitarPLAYER - 2005-12-02

Im kinda a new comer guitar player. do you pick it or strum it? if you could e-mail me at adonai_loverof_god@yahoo.com thank you.

and if any more tips please add too.

god bless


monz8328 - 2006-03-02

the intro is like this D5 Gsus G A D Dsus Bm
D5 Gsus G -----x----3---3--x--x---x----x--------------------------
-----5----5---2--0--x---x----2--------------------------
-----7----5---0--2--0---0----4--------------------------
-----7----5---0--2--2---2----4--------------------------
-----x----3---0--2--3---3----3--------------------------
-----x----3---3--0--2---3----2--------------------------
verse 1
D5 Gsus G

Pre chorus
A G D Dsus D
A G Bm A5
chorus
G D A Bm


monz8328 - 2006-03-02

thats not how i typed it
the intro is
D5 Gsus G

the chords are played
D5 Gsus G A D Dsus Bm
-x----3----3--x--x---x----x----------------------
-5----5----2--0--x---x----2----------------------
-7----5----0--2--0---0----4----------------------
-7----5----0--2--2---2----4----------------------
-x----3----0--2--3---3----3----------------------
-x----3----3--0--2---3----2----------------------


monz8328 - 2006-03-02

i dont know why it keeps moving them over like that but you get the idea just move the chords over unitl they are all under one


spokane wild - 2007-08-15

You guys need to here the awesome solo i got for this


-3/3/4/5/5/6/6/7---------------------------------------------------------------
--------------5/6/9/10/22/1/0--------------------------------------------------
-------------------------22/7/8/9--------------------4-------------------------
--------------------------21-----21-------------12-----------------------------
-------------------------------------21----------21----------------------------
-------------5-------------------------------21--------------------------------


Add a comment/correction

Complimentary Christian Ringtones
Dadamobile and CGR have teamed up to bring your favorite Christian artists right to your phone. Sign up today and get 10 complementary ringtones!
Tab Country
Did you know CGR has a sister site w/ country guitar tabs? Well we do! Its called Tab Country. It has a great archive with a lot of country tabs.
Rockin Tabs
Are you looking for a site that has rock guitar tabs? Then Rockintabs.com is the place for you. It is a budding site with many rock guitar tabs. Submit your tab today.
Tab Gallery
Tab Gallery has a compilation of christian, rock, and country tabs all in one place. Come visit us.