Guitar Tabs
song title    band name

Join Us Today!

Don't strum alone...
be a part of the largest online Christian music community. Browse thousands of guitar tabs and chat w/ musicians like yourself.


It's Free!

Ghoti Hook - Where Is My Mind

This tab has not yet been rated for accuracy.Sorry, but you must be logged in to rate this tab.
Click here to log-in, or you can click here to register.
(Registration is free)

All songs owned by corresponding publishing company. If you make copies of any song on this website, be sure to report your usage to CCLI.
Band: Ghoit Hook
  Album: songs we didn't write
  song: where is my mind
  person who tabbed it out: Garrett Lowe
  person who wrote it first: The Pixies

   (first guitar) Intro: E,C#,G#,A  (do the ohhh ohh thing)
   (second guitar comes in with this):
 ------------------------------------
 ----9---9---9---9---9---9-----------
 --9---9---9---9---8---8---9--8p9-9-9
 ------------------------------------
 ------------------------------------
 then comes the lyrics:

     E                        C#                 Ab   A
With your feet in the air and your head on the ground
E            C#         Ab        A
   Try this trick and spin it   Yeah,
E                    C#               Ab
  Your head will collapse but there's nothing in it
            A
And you'll ask yourself

E           C#
Where is my mind?
Ab                 A
   Where is my mind?
E           C#    Ab  A
Where is my mind?

E  C#   Ab   A

E   Ab         A            Am         C#......  B
Way out in the water see it swimmin'

  (Just use the chords from the above verse for this one...)
                                            
I was swimmin' in the Carribean
Animals were hiding behind the rock
Except the little fish
But they told me, he swears
Tryin' to talk to me to me to me

 [Chorus]

SOLO: alright..this is a weird solo...it takes two guitars to do or it
 won't sound right...the first guitar will start out and then half way
 into the solo another guitar will enter in with it...

 
      E---------------------|--------------7-10-12b-14-14-14---------
      B---------------------|---------7-10---------------------------
      G--9b-9b-9b-9-7---7-9-|-7---7-9--------------------------------
      D---------------9-----|---9------------------------------------
      A---------------------|----------------------------------------
      E---------------------|----------------------------------------

      Where i put that Bar across the solo is where the second guitar 
will 
 come in and play along with the first one...

     this is what the second guitar plays....

     E----------7-10-10-12-12b-14-14-14-----------------------------
     B---7-10-7-----------------------------------------------------
     G--------------------------------------------------------------
     D--------------------------------------------------------------
     A--------------------------------------------------------------
     E--------------------------------------------------------------

  After that you go back into the first verse and the chorus and
 what-not......
    And that's the whole song!! My band does this song
 and it sounds great....
  if anyone has questions or any requests for songs to be tabbed out
 e-mail me at...
   sillyhead413@hotmail.com
  i'll be tabbing out all or most of Ghoti Hooks new one....sometime..
 depends on how much time i have...but they will all get on somehow.
   i just need the time to tab it all out....
      in God's grip,
   Garrett <><

Comments about this tab

calazoid - 2004-11-26

i like this tab


Add a comment/correction

Complimentary Christian Ringtones
Dadamobile and CGR have teamed up to bring your favorite Christian artists right to your phone. Sign up today and get 10 complementary ringtones!
Tab Country
Did you know CGR has a sister site w/ country guitar tabs? Well we do! Its called Tab Country. It has a great archive with a lot of country tabs.
Rockin Tabs
Are you looking for a site that has rock guitar tabs? Then Rockintabs.com is the place for you. It is a budding site with many rock guitar tabs. Submit your tab today.
Tab Gallery
Tab Gallery has a compilation of christian, rock, and country tabs all in one place. Come visit us.