Guitar Tabs
song title    band name

Join Us Today!

Don't strum alone...
be a part of the largest online Christian music community. Browse thousands of guitar tabs and chat w/ musicians like yourself.


It's Free!

This tab has been rated a 0.83 out of 5 for accuracy. (6 votes)Sorry, but you must be logged in to rate this tab.
Click here to log-in, or you can click here to register.
(Registration is free)

All songs owned by corresponding publishing company. If you make copies of any song on this website, be sure to report your usage to CCLI.
Submitted by: kikn4christ....

I so hate conciquences
Relient K

Intro: just listen to the cd to know when to come in with the little riff

Guitar 1
          2x                                 2x
e|----------|----------------------------------|-----|-----------------------
b|----------|-1-1-h2-2---1-1-h2-2--1-1-h2-2--1-|--2--|-----------------------
g|----------|----------------------------------|-----|--3--------------------
D|-11---9---|----------------------------------|-----|-----------------------
A|-11---9---|----------------------------------|-----|-----------------------
E|-9----7---|----------------------------------|-----|-----------------------
  C#5  Bb5

Guitar 2 
           2X 
e|-----------|--------------------------------------------------------------
G|-----------|--------------------------------------------------------------
b|-----------|--------------------------------------------------------------
D|-11----8---|--4---6-------------------------------------------------------
A|-11----8---|--4---6-------------------------------------------------------
E|-9-----7---|--2---4-------------------------------------------------------
  C#5   Bb5   F#5  Ab5


Verse
C#5 Bb5 F#5 C#5 Ab5 4x
F#5 Ab5

Chorus
F#5 C#5 Bb5 Ab5 3x
F#5 Ab5

-After the chorus you do the intro again
Then repeat the verse and chorus

*during the second verse just pick along the top three notes of the 
last few chords

-Also during the bridge, when he's singing quiet you just play the verse chords 
execpt for one variation... when he says ...all this time, and when the 
doors...you just throw in palm mutes on Bb5 and C#5

* one last thing is they move the chords around alot so just try playing them 
in different places mostly down the neck
           
thanx, God Bless

Comments about this tab

johnnylvr10 - 2005-02-05

its awesome me and my band play it all the time know///Rock on Relient K and my band P150


Praise4Christ - 2005-03-18

Hi, I'm trying to teach myself how to play the guitar. someone explained how to do the tabs but i still don't get it. could you help me with that? Thanks!
Prais4Christ


Takamine06 - 2005-03-25

alright, the lines represent strings. they are labeled Low E to High E. when you see a chord or something there will be numbers. that is what fret you are supposed to put your finger on. and he has chords listed below, you just have to know those.


thechadisgreat - 2005-04-20

Dude, first of all the song is in Drop D tuning and is additionally tuned one half step down. So go from there.


Add a comment/correction

Complimentary Christian Ringtones
Dadamobile and CGR have teamed up to bring your favorite Christian artists right to your phone. Sign up today and get 10 complementary ringtones!
Tab Country
Did you know CGR has a sister site w/ country guitar tabs? Well we do! Its called Tab Country. It has a great archive with a lot of country tabs.
Rockin Tabs
Are you looking for a site that has rock guitar tabs? Then Rockintabs.com is the place for you. It is a budding site with many rock guitar tabs. Submit your tab today.
Tab Gallery
Tab Gallery has a compilation of christian, rock, and country tabs all in one place. Come visit us.