Guitar Tabs
song title    band name

Join Us Today!

Don't strum alone...
be a part of the largest online Christian music community. Browse thousands of guitar tabs and chat w/ musicians like yourself.


It's Free!

This tab has been rated a 1.50 out of 5 for accuracy. (4 votes)Sorry, but you must be logged in to rate this tab.
Click here to log-in, or you can click here to register.
(Registration is free)

All songs owned by corresponding publishing company. If you make copies of any song on this website, be sure to report your usage to CCLI.
Submitted by: rustysneakers

Artist: Pillar
Song: Holding On
Album: Where Do We Go From Here
tabbed by: rustysneakers
tuning: drop c
ok, this is my first tab, and i saw that holding on was not there, so i decided 
to try this one;), the only prob. is that you need pretty big hands to play 
this.
numbers surround by /\= palm mute
intro:
d[--------------------------------------------------------------------
a[--------------------------------------------------------------------
f[--------------------------------------------------------------------
c[--------------------------------------------------------------------
g[---4-/4\-9-7-/4\-/4\-9-7-/6\-/6\-7-0-/0\-9-7-/0\-/0\-9-7-/7\-/7\-6-4
c[---4-/4\-4-4-/4\-/4\-4-4-/6\-/6\-7-0-/0\-0-0-/0\-/0\-0-0-/7\-/7\-6-4

d[--------------------------------------------------------------------
a[--------------------------------------------------------------------
f[--------------------------------------------------------------------
c[--------------------------------------------------------------------
g[---/4\-9-7-/4\-/4\-9-7-/4\-/4\-/6\-7-/7\-7---7777-0-----------------
c[---/4\-4-4-/4\-/4\-4-4-/4\-/4\-/6\-7-/7\-7---7777-0-----------------
ok, i'll be back with the verse later;)
please make critisism and comments

Comments about this tab

rustysneakers - 2005-01-13

i already found something wrong:P
in the first part where i put:
g[---/6\-/6\-7-0---
c[---/6\-/6\-7-0---
it should just go:

g[---6-7-0---
c[---6-7-0---
sorry for any confusion
rusty*


GuitarBeemer - 2005-02-17

sorry dude,
but this is pretty messed up.
one thing, you don't need big hands for that one part.
instead of using just the top two strings, use the first and third one, instead of the 9th fret on the second string, just go to the fifth fret on the third string and mute the second string. it will be the same. trust me.


rock4christ08 - 2005-03-07

yeah, what he said


swimmer009 - 2005-03-22

ya i have the book and its not that hard to opla ybut theres like3 guitars playing its insane the solo fun to play to

l4J
ps i was typinng this and the song started to play on my computer thats a cowinsidince


Basshammer2000 - 2006-04-07

pretty good for a first tab though


Dani_Boy - 2006-05-07

Write out your palm mutings with . symbols underneath the tab. It makes it much easier to read and it doesn't use any space in your tab, so it's much easier to tab also. Just a tip. ;)


.:RoCk4hIm:. - 2007-03-02

dude dont upset or anything it is a pretty crazy song to tab...u did ok tho...


Add a comment/correction

Complimentary Christian Ringtones
Dadamobile and CGR have teamed up to bring your favorite Christian artists right to your phone. Sign up today and get 10 complementary ringtones!
Tab Country
Did you know CGR has a sister site w/ country guitar tabs? Well we do! Its called Tab Country. It has a great archive with a lot of country tabs.
Rockin Tabs
Are you looking for a site that has rock guitar tabs? Then Rockintabs.com is the place for you. It is a budding site with many rock guitar tabs. Submit your tab today.
Tab Gallery
Tab Gallery has a compilation of christian, rock, and country tabs all in one place. Come visit us.