Guitar Tabs
song title    band name

Join Us Today!

Don't strum alone...
be a part of the largest online Christian music community. Browse thousands of guitar tabs and chat w/ musicians like yourself.


It's Free!

This tab has been rated a 3.25 out of 5 for accuracy. (4 votes)Sorry, but you must be logged in to rate this tab.
Click here to log-in, or you can click here to register.
(Registration is free)

All songs owned by corresponding publishing company. If you make copies of any song on this website, be sure to report your usage to CCLI.
Submitted by: Shebz

Execute the Sounds
POD

Hey, this song is awesome, dudes y dudettes!

{standard tuning}

[INTRO]
e|----------------------------------------------------------------
B|----------------------------------------------------------------
G|----------------------------------------------------------------
D|---3-----3-----3----3-----3-----3-----3-----3------------------
A|-3---0-3-----3--0-3-----4---0-4-----4---0-4--------------------
E|----------------------------------------------------------------

[CHORUS]
e|----------------------------------------------------------------
B|----------------------------------------------------------------
G|----------------------------------------------------------------
D|--33-3-5--33-3-5--6-8--5-5-5--33-3-5--33-3-5--6-8--5-55-55---
A|--33-3-x--33-3-x--6-x--5-5-5--33-3-x--33-3-x--6-x--5-55-55---
E|--33-3-x--33-3-x--6-x--5-5-5--33-3-x--33-3-x--6-x--5-55-55---

**ON THE LAST PART OF THE CHOURS, PLAY THIS!**
e|----------------------------------------------------------------
B|----------------------------------------------------------------
G|----------------------------------------------------------------
D|--33-3-5--33-3-5--6-8--5-55-55-55-55--------------------------
A|--33-3-x--33-3-x--6-x--5-55-55-55-55--------------------------
E|--33-3-x--33-3-x--6-x--5-55-55-55-55--------------------------


[SOLO/BRIDGE]
e|-------------------------------------
B|-------------------------------------
G|------------------------------------
D|--3-4-3-1-3--33-66--3-4-3-1-3------
A|-------------33-66--------------44--
E|-------------33-66--------------44--

There ya go! This for sure is 150% right! Guaranteed or your money back!! 
lol, jk! Just let me know what you guys think of this tab! Comments or whatever 
you want to say!

GODSPEED,

shebz

Comments about this tab

_Mat_ - 2005-03-28

great tab man, I think there's an extra note in the intro , I've no idea what note but there is one,,,, mysterious ;)


Shebz - 2005-04-11

you mean... an extra note too many? or not enuff notes in the intro?


skanigit - 2006-03-25

I'm thinking this is in drop d, despite the tuning noted on the strings.

It is important to note, though, b/c most of P.O.D.'s stuff is in drop c.

Good tab though. Not sure what the extra note stuff is all about


Add a comment/correction

Complimentary Christian Ringtones
Dadamobile and CGR have teamed up to bring your favorite Christian artists right to your phone. Sign up today and get 10 complementary ringtones!
Tab Country
Did you know CGR has a sister site w/ country guitar tabs? Well we do! Its called Tab Country. It has a great archive with a lot of country tabs.
Rockin Tabs
Are you looking for a site that has rock guitar tabs? Then Rockintabs.com is the place for you. It is a budding site with many rock guitar tabs. Submit your tab today.
Tab Gallery
Tab Gallery has a compilation of christian, rock, and country tabs all in one place. Come visit us.