Guitar Tabs
song title    band name

Join Us Today!

Don't strum alone...
be a part of the largest online Christian music community. Browse thousands of guitar tabs and chat w/ musicians like yourself.


It's Free!

This tab has been rated a 2.33 out of 5 for accuracy. (3 votes)Sorry, but you must be logged in to rate this tab.
Click here to log-in, or you can click here to register.
(Registration is free)

All songs owned by corresponding publishing company. If you make copies of any song on this website, be sure to report your usage to CCLI.
Submitted by: demonslayer_jb

e -----------------------------------------------------------------
b -----------------------------------------------------------------
g -----------------------------------------------------------------
d -----------------------------------------------------------------
a ---0---0-0----2---2-2----3---3-3----5---5-5----------------------
d ---0---0-0----2---2-2----3---3-3----5---5-5----------------------

The first few lines of the song is palm muted

Comments about this tab

demonslayer_jb - 2005-02-08

Sorry
U're supoosed to play this:

g -----------------------------------------------------------------
d ---0---0-0----2---2-2----3---3-3----5---5-5----------------------
a ---0---0-0----2---2-2----3---3-3----5---5-5----------------------
d ---0---0-0----2---2-2----3---3-3----5---5-5----------------------


lilsk8rboi411 - 2005-02-10

no its like this


e:---------------------------
b:---------------------------
g:---------------------------
d:-5-5-5--5-5-5--5-5-5--5-5-5
a:-5-5-5--5-5-5--5-5-5--5-5-5
d:-0-0-0--2-2-2--3-3-3--5-5-5


lilsk8rboi411 - 2005-02-10

wait sorry.. dont play 5 on the d string..its open mute like the others


7thDayBassman - 2005-03-15

really u dont play each note 3 times because they use an echo effect so u realy only do each one once. just thought id let u kno.


lilsk8rboi411 - 2005-05-06

ya but live he doesnt use the echo..im not a big fan on echoes..


Add a comment/correction

Complimentary Christian Ringtones
Dadamobile and CGR have teamed up to bring your favorite Christian artists right to your phone. Sign up today and get 10 complementary ringtones!
Tab Country
Did you know CGR has a sister site w/ country guitar tabs? Well we do! Its called Tab Country. It has a great archive with a lot of country tabs.
Rockin Tabs
Are you looking for a site that has rock guitar tabs? Then Rockintabs.com is the place for you. It is a budding site with many rock guitar tabs. Submit your tab today.
Tab Gallery
Tab Gallery has a compilation of christian, rock, and country tabs all in one place. Come visit us.