Guitar Tabs
song title    band name

Join Us Today!

Don't strum alone...
be a part of the largest online Christian music community. Browse thousands of guitar tabs and chat w/ musicians like yourself.


It's Free!

This tab has been rated a 3.75 out of 5 for accuracy. (4 votes)Sorry, but you must be logged in to rate this tab.
Click here to log-in, or you can click here to register.
(Registration is free)

All songs owned by corresponding publishing company. If you make copies of any song on this website, be sure to report your usage to CCLI.
Submitted by: guitardood

American Dream
 by Casting Crowns

verse 1 and 2, clean
e-------------------------------------------------
b-------------------------------------------------   12x
g---6---------------------------------------------
d---6------9--------------------------------------
a---4------9--------------------------------------
e----------7--------------------------------------
 listen to da song for the struming

pre-chorus, grunge distortion
e-------------------------------------------------
b-------------------------------------------------
g-----------7-------------------------------------
d---2---5---7---2---5-----------------------------
a---2---5---5---2---5-----------------------------
e-------3-----------3-----------------------------

chorus, grunge distortion
e-------------------------------------------------
b-------------------------------------------------
g---7-----------7-----------7-----------7---------
d---7--5--9--5--7--5--9--5--7--5--9--5--7---------
a---5--5--9--5--5--5--9--5--5--5--9--5--5---------
e------3--7--3-----3--7--3-----3--7--3------------

then at the end at the part where it says his kingdom stands it goes somethin like this
e-------------------------------------------------
b-------------------------------------------------
g---7---------------7-----------------------------
d---7---7---9---7---7---7---9---7-----------------
a---5---7---9---7---5---7---9---7-----------------
e-------5---7---5-------5---7---5-----------------

this is my first tabb ever so of course its not gunna be perfect, but this is a really
good song and i hope this tabb helps somebody,,,,'''''rock on casing crowns'''''

Comments about this tab

matt j t - 2005-01-27

The first chord (x 4 6 6 x x) is supposed to be

X 5 7 7 x x

Great job on this tab dude!!


musicmatt112590 - 2005-03-24

matt j t, you're like, everywhere! Every song I've looked at today has had one or more of your comments! Is this like, a hobby?


matt j t - 2005-04-03

Yeah, it is!


Bigjobey1288 - 2005-04-08

DUDE GREAT TAB!!!!!! Keep up the good work but, make sure you get it right, but over all GREAT JOB MAN!!!!!


Jerry*77* - 2005-05-05

hey thanks for the tabs i'm new here and just want y'all to know i think you're all good guys

God Bless,
Jerry


fbcpguitar - 2005-05-23

im new here too and i also like everthing that yall are doing i think that everyone is great. The tabs are helping me out alot and i wanted yall to know how much i appreciate all that you do


Thanks and God Bless each everyone



Add a comment/correction

Complimentary Christian Ringtones
Dadamobile and CGR have teamed up to bring your favorite Christian artists right to your phone. Sign up today and get 10 complementary ringtones!
Tab Country
Did you know CGR has a sister site w/ country guitar tabs? Well we do! Its called Tab Country. It has a great archive with a lot of country tabs.
Rockin Tabs
Are you looking for a site that has rock guitar tabs? Then Rockintabs.com is the place for you. It is a budding site with many rock guitar tabs. Submit your tab today.
Tab Gallery
Tab Gallery has a compilation of christian, rock, and country tabs all in one place. Come visit us.