Guitar Tabs
song title    band name

Join Us Today!

Don't strum alone...
be a part of the largest online Christian music community. Browse thousands of guitar tabs and chat w/ musicians like yourself.


It's Free!

This tab has been rated a 1.50 out of 5 for accuracy. (2 votes)Sorry, but you must be logged in to rate this tab.
Click here to log-in, or you can click here to register.
(Registration is free)

All songs owned by corresponding publishing company. If you make copies of any song on this website, be sure to report your usage to CCLI.
Submitted by: Shaneathin86

Song: Disguising Mistakes with Goodbyes
Album: The Weak's End
Solid State 

This is just the intro, but i konw some people wanted it tabbed so here goes
Intro/verse 1
D#--------------------------------------------------
A#--------------------------------------------------
F#----------------------7---------------------------
C#--0000--5p4--5p4--5p4--4--0000--5p4--5p4--5p4--7--
G#--0000-----5----5---------0000-----5----5---------
C#--0000--------------------0000--------------------

This is an awesome song. enjoy that little bit o' tab and add some if u have it
Questions, comments, editorials, and other nonsense--> Shaneathin86@hotmail.com

                                                   -Shaner

Comments about this tab

Emery37 - 2005-02-08

the end 7 on the g string doensnt sound right


Emery37 - 2005-02-08

but other than that its good


fred91 - 2005-02-08

can some1 tab walls and the ponytail parade

thanks


Belovedrawks - 2005-02-27

There should be something On the title that says intro . . .

I thought that this was the whole song . . .

Good tabbing though . . .


cryistalrider - 2005-10-12

yea
aa 7 on the 3rd sting is right not 4th at the end last note


bass4christ27 - 2006-01-14

This how I play the intro:
eb----------------------------------------------
bb----------------------------------------------
gb-------------------7-----------------------7--
db--2222--5p4-5p4-5p4--4--2222--5p4-5p4-5p4--7--
ab--2222------------------2222------------------
Db--2222------------------2222------------------ pm.... ....
i'm working on the rest of the song, and should be done soon.


ninetypoundwus - 2006-01-16

hey this is how i play the intro
eb------------------------------------------|
bb------------------------------------------|
gb-------------------5--------------------5-|
db----3----3---3--3---5----3----3---3-3---5-|
ab-55---55---5--5--5----55---55---5-----5-3-|
Eb------------------------------------------|
dont ask me if its right but thats just how i play it it sounds right though


ninetypoundwus - 2006-01-22

THE LAST CHORD SHOULD BE THIS SORRY
g-7-
d-7-
A-5-


bass4christ27 - 2006-01-28

sry, I actually looked back at the song and got this for the lead
eb----------------------------------------------
bb----------------------------------------------
gb----------------------------------------------
db---------------------12--------------------12-
ab-------10-9-10-9-10-9--9----10-9-10-9-10-9-12-
Eb--0000-----0----0-------0000----0----0--------
p.m.. . . .... . .

this song is tuned to Eb,
I'm almost done with the full tab, and it should be on soon


acousticpunker - 2006-02-23

I actually play it in Drop D tuning...

G-------------------------5--
D-0-0-0-0--3-2---3-2--3-2--3-
A-0-0-0-0--------------------
D-0-0-0-0--------------------

G----------------------------
D-0-0-0-0--3-2---3-2--3-2--5-
A-0-0-0-0------------------3-
D-0-0-0-0--------------------

...Any Ideas on the rest of the song??


tl_guitarnut - 2006-09-07

I just tabbed this whole song out, so, go check out my version.


iced slurpee - 2007-08-30

hey umm i dont mean 2 advertise.. but u can get a tooth and nail guitar book that has 2 emery songs! ....and i stink at both of them = (


Add a comment/correction

Complimentary Christian Ringtones
Dadamobile and CGR have teamed up to bring your favorite Christian artists right to your phone. Sign up today and get 10 complementary ringtones!
Tab Country
Did you know CGR has a sister site w/ country guitar tabs? Well we do! Its called Tab Country. It has a great archive with a lot of country tabs.
Rockin Tabs
Are you looking for a site that has rock guitar tabs? Then Rockintabs.com is the place for you. It is a budding site with many rock guitar tabs. Submit your tab today.
Tab Gallery
Tab Gallery has a compilation of christian, rock, and country tabs all in one place. Come visit us.