Guitar Tabs
song title    band name

Join Us Today!

Don't strum alone...
be a part of the largest online Christian music community. Browse thousands of guitar tabs and chat w/ musicians like yourself.


It's Free!

This tab has not yet been rated for accuracy.Sorry, but you must be logged in to rate this tab.
Click here to log-in, or you can click here to register.
(Registration is free)

All songs owned by corresponding publishing company. If you make copies of any song on this website, be sure to report your usage to CCLI.
Submitted by: oliwally

"Rose Colored Stained Glass Windows"
PETRA: More Power To Ya
(c) 1982 Star Song Records
revised by Jars of Clay

The chord progression is taken from the Jars of Clay version, originally tabbed 
by Jonathan Hunter (Jarboy7@aol.com)

I have written the tab so it sounds a lot more like the original Petra version
but in a different key (as is the Jars of Clay version). Iím sure itís not 
perfect, so I would welcome any suggestions to make it even better.Hope you 
like it and have fun playing it. God bless you all and take heed of the words
when you sing this song !
Oliver Essebier (oli1wally@hotmail.com)

Tempo: about 130

INTRO: Dm, Fm       Play it a few times (listen to original)

      Dm                                Fm
E---|------1p0---0-1--|-----1p0---0-1-|-------------|-------------
B---|----------3------|---------3-----|-------1-----|-------1-----
G---|----2------------|---2-----------|-2-0---------|-2-0---------
D---|-0----0-----0----|-0---0-----0---|-----3-------|-----3-------
A--0|----------------0|---------------|-------------|-------------
E---|-----------------|---------------|-1---1---1-1-|-1---1---1-1-


VERSE: Bb, C, Dm, Gm, F

  Bb                C                   Dm               Dm
E-----------------|---------------0---|-----1p0---0-1---|------1p0---0-1-
B-----3p1---1-3---|---1-----------1---|---------3-------|----------3-----
G---3-----3-------|---0---------0---0-|---2-------------|----2-----------
D-----------------|-----3p2---2-------|-0---0-----0-----|--0---0-----0---
A-1---1-----1---1-|-3-------3---------|---------------0-|----------------
E-----------------|-------------------|-----------------|----------------

Repeat
  Bb                C                   Dm               Dm
E-----------------|---------------0---|-----1p0---0-1---|------1p0---0-1-
B-----3p1---1-3---|---1-----------1---|---------3-------|----------3-----
G---3-----3-------|---0---------0---0-|---2-------------|----2-----------
D-----------------|-----3p2---2-------|-0---0-----0-----|--0---0-----0---
A-1---1-----1---1-|-3-------3---------|---------------0-|----------------
E-----------------|-------------------|-----------------|----------------


  Gm            F             C                   Dm
E-----3-3---3-|-----1-1---1-|---------------0---|------1p0---0-1-
B-----3-3---3-|-----1-1---1-|---1-----------1---|----------3-----
G---3-----3---|---2-----2---|---0---------0---0-|----2-----------
D-------------|-------------|-----3p2---2-------|--0---0-----0---
A-------------|-------------|-3-------3---------|----------------
E-3---3-3---3-|-1---1-1---1-|-------------------|----------------


  Gm            Bb            F             C
E-----3-3---3-|-----3-3---3-|-----1-1---1-|---------------0---
B-----3-3---3-|-----3-3---3-|-----1-1---1-|---1-----------1---
G---3-----3---|---3-----3---|---2-----2---|---0---------0---0-
D-------------|-------------|-------------|-----3p2---2-------
A-------------|-1---1-1---1-|-------------|-3-------3---------
E-3---3-3---3-|-------------|-1---1-1---1-|-------------------
 
CHORUS: Dm, C, F     Play the following 2 times

   Dm     C         F     C           Dm     C         F     C  
E|------1-----0---|-----1-----------|------1-----0---|-----1-----------
B|------3-----1---|-----1---1-------|------3-----1---|-----1---1-------
G|----2-----0---0-|---2-----0-------|----2-----0---0-|---2-----0-------
D|-0--------------|-----------3p2---|-0--------------|-----------3p2---
A|--------3-------|-------3-------3-|--------3-------|-------3-------3-
E|----------------|-1---------------|----------------|-1---------------



Between chorus and verse is something like the intro:
 
      Dm                                Fm
E|------1p0---0-1--|-----1p0---0-1-|-------------|-------------
B|----------3------|---------3-----|-------1-----|-------1-----
G|----2------------|---2-----------|-2-0---------|-2-0---------
D|-0----0-----0----|-0---0-----0---|-----3-------|-----3-------
A|----------------0|---------------|-------------|-------------
E|-----------------|---------------|-1---1---1-1-|-1---1---1-1-


Breaks into electric after this

Comments about this tab

No comments/corrections found. Add your own

Complimentary Christian Ringtones
Dadamobile and CGR have teamed up to bring your favorite Christian artists right to your phone. Sign up today and get 10 complementary ringtones!
Tab Country
Did you know CGR has a sister site w/ country guitar tabs? Well we do! Its called Tab Country. It has a great archive with a lot of country tabs.
Rockin Tabs
Are you looking for a site that has rock guitar tabs? Then Rockintabs.com is the place for you. It is a budding site with many rock guitar tabs. Submit your tab today.
Tab Gallery
Tab Gallery has a compilation of christian, rock, and country tabs all in one place. Come visit us.