Guitar Tabs
song title    band name

Join Us Today!

Don't strum alone...
be a part of the largest online Christian music community. Browse thousands of guitar tabs and chat w/ musicians like yourself.


It's Free!

This tab has been rated a 3.33 out of 5 for accuracy. (3 votes)Sorry, but you must be logged in to rate this tab.
Click here to log-in, or you can click here to register.
(Registration is free)

All songs owned by corresponding publishing company. If you make copies of any song on this website, be sure to report your usage to CCLI.
Submitted by: jdwise5509c

Chem6A
Switchfoot

Ya ummmm..... this took me about an hour to do. I took someone elses tab and took
some time in it and made it as close as I could. The solos are a little off but 
the rythm is right and it's hard to do a solo like that so ya.....for the chorus
that's just the right chords (tabs I think) just needs to be own strumming 
because its kinda weak so ok........
			Intro
|-----------------------------------------|
|-----------------------------------------|
|----4b-0-----4b-0-----3b-0------2-4-2-0--|
|---------------------------00------------|
|---------22-------33---------------------|
|33---------------------------------------|

|-----------------------------------------|
|-----------------------------------------|
|----XX-------4b-0-----3b-0--------4b-----|
|----XX---------------------00------------|
|----XX-0-22-------33---------------------|
|33--XX-0---------------------------------|
================================================
			Verse 3x               =
|-----------------------------------------|    =
|-----------------------------------------|    =
|----XX-------4b-0-----3b-0------2-4-2-0--|    =
|----XX---------------------00------------|    =
|----XX-0-22-------33---------------------|    =
|33--XX-0---------------------------------|    =
                                               =
|-----------------------------------------|    =
|-----------------------------------------|    =
|----XX-------4b-0-----3b-0---------2fb---|    =
|----XX---------------------00------------|    =
|----XX-0-22-------33---------------------|    =
|33--XX-0---------------------------------|    =
================================================
			break
|-----------------------------------------|
|-----------------------------------------|
|----XX-------4b-0-----3b-0------2-4-2-0--|
|----XX---------------------00------------|
|----XX-0-22-------33---------------------|
|33--XX-0---------------------------------|

|-----------------------------------------|
|-------------------4---5---7-------------|
|----4b-0-----------4---5---7-------------|
|-------------------4---5---7-------------|
|----------------22-2---3---5-------------|
|33-----------------2---3---5-------------|

			chorus
|-----------------------------------|
|-9---99--99--99--9---99--99--99----|
|-9---99--99--99--9---99--99--99----|
|-9---99--99--99--9---99--99--99----|
|-7---77--77--77--7---77--77--77----|
|-7---77--77--77--7---77--77--77----|

|-----------------------------|
|-5---55--55--55----7---10----|
|-5---55--55--55----7---10----|
|-5---55--55--55----7---10----|
|-3---33--33--33----5----8----|
|-3---33--33--33----5----8----|

|-----------------------------------|
|-9---99--99--99--9---99--99--99----|
|-9---99--99--99--9---99--99--99----|
|-9---99--99--99--9---99--99--99----|
|-7---77--77--77--7---77--77--77----|
|-7---77--77--77--7---77--77--77----|

|-------------------------------|
|-5---55--55--55----77--7710----|
|-5---55--55--55----77--7710----|
|-5---55--55--55----77--7710----|
|-3---33--33--33----55--55-8----|
|-3---33--33--33----55--55-8----|

			solo 1
|--------------------------------| |--------------------------------|
|--------------------------------| |--------------------------------|
|7----------------------7-/11----| |2----0-2-2-3-0-/7-----7-X7-X77--|
|--------------------------------| |----------------------7-X7-X77--|
|--------------------------------| |--------------------------------|
|--------------------------------| |--------------------------------|

|-----------------------------------------------------------------------------|	
|-----------------------------------------------------------------------------|
|7-/12----14-/15-12--12-14-12--10--12--12-10-10-10-12-10-10-10-12-10-10-10-12-|
|------------------------------10--12--12-10-10-10-12-10-10-10-12-10-10-10-12-|
|-----------------------------------------------------------------------------|
|-----------------------------------------------------------------------------|

|--------------------------------------------------|
|--------------------------------------------------|
|12-12-12-10-12-12-12---14-15-12---12---14---12----|
|12-12-12-10-12-12-12------------------------------|
|--------------------------------------------------|
|--------------------------------------------------|

			bridge 4x
|--------------------------------------------------|
|9--------------------7--------------10------------|
|9--------------------7--------------10------------|
|9--------------------7--------------10------------|
|7--------------------5---------------8------------|
|7--------------------5---------------8------------|
			Verse
|-----------------------------------------|
|-----------------------------------------|
|----XX-------4b-0-----3b-0------2-4-2-0--|
|----XX---------------------00------------|
|----XX-0-22-------33---------------------|
|33--XX-0---------------------------------|

|-----------------------------------------|
|-----------------------------------------|
|----XX-------4b-0-----3b-0---------2fb---|
|----XX---------------------00------------|
|----XX-0-22-------33---------------------|
|33--XX-0---------------------------------|
			break
|-----------------------------------------|
|-----------------------------------------|
|----XX-------4b-0-----3b-0------2-4-2-0--|
|----XX---------------------00------------|
|----XX-0-22-------33---------------------|
|33--XX-0---------------------------------|

|-----------------------------------------|
|-------------------4---5---7-------------|
|----4b-0-----------4---5---7-------------|
|-------------------4---5---7-------------|
|----------------22-2---3---5-------------|
|33-----------------2---3---5-------------|
			(chorus)

========================solo 2=3x=====
|3----5---5-7-5---3-3---2-0-2-0-----|=|3----5---5-7-5---3-3---2-0-2-0-3-----|
|3----------------1-1-----1---1-----|=|3----------------1-1-----1---1-0-----|
|-----------------------------------|=|-------------------------------------|
|-----------------------------------|=|-------------------------------------|
|-----------------------------------|=|-------------------------------------|
|-----------------------------------|=|-------------------------------------|
======================================

Comments about this tab

G-Everlasting13 - 2005-03-31

Man what is your problem, this was a great tab. It should have a 5 stars*****


Wesley7777 - 2005-04-16

i think this tab earned more than a one the intro looks correct and the chorus seems good to me


Add a comment/correction

Complimentary Christian Ringtones
Dadamobile and CGR have teamed up to bring your favorite Christian artists right to your phone. Sign up today and get 10 complementary ringtones!
Tab Country
Did you know CGR has a sister site w/ country guitar tabs? Well we do! Its called Tab Country. It has a great archive with a lot of country tabs.
Rockin Tabs
Are you looking for a site that has rock guitar tabs? Then Rockintabs.com is the place for you. It is a budding site with many rock guitar tabs. Submit your tab today.
Tab Gallery
Tab Gallery has a compilation of christian, rock, and country tabs all in one place. Come visit us.