Guitar Tabs
song title    band name

Join Us Today!

Don't strum alone...
be a part of the largest online Christian music community. Browse thousands of guitar tabs and chat w/ musicians like yourself.


It's Free!

This tab has been rated a 4.90 out of 5 for accuracy. (10 votes)Sorry, but you must be logged in to rate this tab.
Click here to log-in, or you can click here to register.
(Registration is free)

All songs owned by corresponding publishing company. If you make copies of any song on this website, be sure to report your usage to CCLI.
Submitted by: skid

Song: Something To Believe In
Artist: FM Static
Album: What Are You Waiting For?

 Intro
e-------------------------------------------|
B-------------------------------------------|
G-7-7-7-7-7--7-7-7-7-7-7--7-7-7-7-7-7-------|
D-7-7-7-7-7--7-7-7-7-7-7--7-7-7-7-7-7--5--7-|  X2
A-5-5-5-5-5--5-5-5-5-5-5--5-5-5-5-5-5--5--7-|
E--------------------------------------3--5-|

Verse
e-------------------------------------------------------| 
B-------------------------------------------------------| 
G-7-------7-7-7-7----------7-7-7-7-------7-7-7-7-7------| 
D-7-------7-7-7-7----5--7--7-7-7-7-------7-7-7-7-7--5--7|
A-5-------5-5-5-5----5--7--5-5-5-5-------5-5-5-5-5--5--7|
E--------------------3--5---------------------------3--5|

e------------------------------------------| Repeat but on the 2nd
B------------------------------------------| time do this instead of 
G-7-7-7-7-7--7-7-7-7-7-7--7-7-7-7-7-7------| 5-7
D-7-7-7-7-7--7-7-7-7-7-7--7-7-7-7-7-7--5-7-| 5-7
A-5-5-5-5-5--5-5-5-5-5-5--5-5-5-5-5-5--5-7-| 3-5
E--------------------------------------3-5-|

e-------------------|
B-------------------|
G-4-4---------------| X2
D-4-4--4-4--5-5-7-7-|
A-2-2--4-4--5-5-7-7-|
E------2-2--3-3-5-5-|

Chorus
e------------------------------------------------------------------------|
B------------------------------------------------------------------------|
G-7-7-7-7-----------------------------7-7-7-7----------------------------|
D-7-7-7-7--7-7-7-7--5-5-5-5--7-7-7-7--7-7-7-7--7-7-7-7--4-4-4-4--7-7-7-7-|
A-5-5-5-5--7-7-7-7--5-5-5-5--7-7-7-7--5-5-5-5--7-7-7-7--4-4-4-4--7-7-7-7-|
E----------5-5-5-5--3-3-3-3--5-5-5-5-----------5-5-5-5--2-2-2-2--5-5-5-5-|

e-------------------------------------------------------------| Then go back 
B-------------------------------------------------------------| to the intro
G-7-7-------7-7-----------7-7-7-7-----------4-4-4-4-----------| and verse
D-7-7--7-7--7-7--5-5-5-5--7-7-7-7--4-4-4-4--4-4-4-4--5-5--7-7-|
A-5-5--7-7--5-5--5-5-5-5--5-5-5-5--4-4-4-4--2-2-2-2--5-5--7-7-|
E------5-5-------3-3-3-3-----------2-2-2-2-----------3-3--5-5-|

Bridge
e--------------------------------------------------------------------|
B------------------------------------------------------------------.-|
G-7-7-7-7--4-4-4-4--5-5-5-5-5-5-5-5--4-4-4-4--------------------.--4-|
D-7-7-7-7--4-4-4-4--5-5-5-5-5-5-5-5--4-4-4-4--4-4-4-4--5-5-5-5--7--4-|
A-5-5-5-5--2-2-2-2--3-3-3-3-3-3-3-3--2-2-2-2--4-4-4-4--5-5-5-5--7--2-|
E---------------------------------------------2-2-2-2--3-3-3-3--5----|

e------------------------------------|  Then back to the Chorus
B------------------------------------|
G-4-4-4-4----------------------------|
D-4-4-4-4--4-4-4-4--5-5-5-5--7-7-7-7-|X2
A-2-2-2-2--4-4-4-4--5-5-5-5--7-7-7-7-|
E----------2-2-2-2--3-3-3-3--5-5-5-5-|

Sorry guys n gals i dunno the outro but i'll be dandy if u post it 

Comments about this tab

pistolpete - 2005-01-10

sweet I've been waiting forever for somone to post this.


skid - 2005-01-14

no problem i was bored and i thought that i wouold post this b/c nobody had it in an actual tab


Emery37 - 2005-01-20

dude this is like perfect! u rock!


skid - 2005-01-20

thx


hot dog - 2005-01-25

First of all nice job bro!
second i think i got the ending
.=pm
D---------------6-6-6-4-----------------------
A-4-4-4-6-6-6-6---------4-4-4-6-6-6-6-4-4-4-4-
. . . . . . . . . . . . . . . . . . . . . .

D-------------6-6-6-3-----------------|
A-4-4-4-6-6-6---------4-4-4-6-6-8-6-4-|
. . . . . . . . . . . . . . . . . .

g-6-6-----------6-6-----------|
D-6-6-6-6-6-6-6-6-6-4-4-4-4-4-|x2
a-4-4-6-6-6-6-6-4-4-4-4-4-4-4-|
E-----4-4-4-4-4-----2-2-2-2-2-|

Then end on

G-6---6-|
D-6-6-6-|
a-4-6-4-|
E---4---|

Rawk on fm static rules!


skid - 2005-02-12

i'm not sure thats 100% there Hot Dog but it's pretty darn close


FMstaticfreak - 2005-03-25

dude, awesome job! im flippin out its so awesome!


rockin_4_Christ - 2005-04-10

yeah the tab is awsome i don't know if the outro is 100% tho hot dog but its pretty close, awsome tab it is 100% perfect in my opinion
><>Josh<><


BSFCanalWOH - 2005-06-29

sweet tab, I've been learning Crazy Mary and Definately Maybe, but this one is so easy, I think I'll do this one too. Thx.


fireproof101 - 2005-09-02

Wow! This is an awesome tab. I think that there's a palm mute after each set of E5's in the intro. I could be wrong, but that's how I play it. Again, awesome tab!!!!





Isaiah1992 - 2005-10-07

outro
*=pm
s=slide
~hold

D-------------7-7-7-4-----------------------
A-5-5-7-7-7-7---------5-5-7-7-7-7-9-7-5-5-5- x3
* * * * * * * * * * * * * * * * * * * * * *

D-----------7-7s4-4
A-5-5s7-7-7---------5-5s7-7-7s9-7-5

G-7-7-----------7-7----------
D-7-7-7-7-7-7-7-7-7-7-7-7-7-7
A-5-5-7-7-7-7-7-5-5-7-7-7-7-7
E-----5-5-5-5-5-----5-5-5-5-5 x2


Then end on

G-7~----7~-|
D-7~-7~-7~-|
a-5~-7~-5~-|
E----5~----|

gj on this tab
God rocks!


skid - 2005-11-16

sounds good to me Isaiah1992


waterfallhouse - 2006-01-15

i think Isaiah got it right- the outro that is


Add a comment/correction

Complimentary Christian Ringtones
Dadamobile and CGR have teamed up to bring your favorite Christian artists right to your phone. Sign up today and get 10 complementary ringtones!
Tab Country
Did you know CGR has a sister site w/ country guitar tabs? Well we do! Its called Tab Country. It has a great archive with a lot of country tabs.
Rockin Tabs
Are you looking for a site that has rock guitar tabs? Then Rockintabs.com is the place for you. It is a budding site with many rock guitar tabs. Submit your tab today.
Tab Gallery
Tab Gallery has a compilation of christian, rock, and country tabs all in one place. Come visit us.