Guitar Tabs
song title    band name

Join Us Today!

Don't strum alone...
be a part of the largest online Christian music community. Browse thousands of guitar tabs and chat w/ musicians like yourself.


It's Free!

This tab has been rated a 4.17 out of 5 for accuracy. (6 votes)Sorry, but you must be logged in to rate this tab.
Click here to log-in, or you can click here to register.
(Registration is free)

All songs owned by corresponding publishing company. If you make copies of any song on this website, be sure to report your usage to CCLI.
Submitted by: Awanabecop

Artist:Kutless
Song:Dry
CD:Kutless
Copyright:2002

This is a complete version of this song!! listen to the CD for timing 
i also tabbed Again by Kutless. The one that's 5.0! i hope
this one will make it too!!

This song is in Droped D!
intro and verse
G----0----0-----0---0-----0--------------------------- 4X
D---0----------0---------0------12------9-------------
A--9----------9--------10----10------10---10--10hp11---
D-0----0-----0----0---9----9-------9------------------



G-------12-----------12---------11--------11---------
D-----12--12-------12--12-----11--11----11--11---------------
A---10------10---10------10--9------9--9------9----------
D-10-----------10-----------9---------9------------


G-------12-----------12---------11--------
D-----12--12-------12--12-----11---x-x---pm5----
A---10------10---10------10--9-----x-x---pm5----
D-10-----------10-----------9------x-x---pm5----

Intro figure. on fourth time do this

G----0----0-----0---0-----0---------- 
D---0----------0---------0----5------
A--9----------9--------10-----5------
D-0----0-----0----0---9-------5------

Chourus

D--10-x-x-12--x--12-----9-x-x--11-x--11---------
A--10-x-x-10--x--10-----9-x-x--9--x--9-------
D--10-x-x-10--x--10-----9-x-x--9--x--9-------


D--10-x-x-12--x--12-----9-x-x--11-11---5--------
A--10-x-x-10--x--10-----9-x-x--9--9----5--------
D--10-x-x-10--x--10-----9-x-x--9--9----5-------- 2x

Bridge

gtr1
G---7--------------------7--------------
D--7---7--5-4-----------7----7--5-4--------
A-------------5--5s9s5--------------5---------
D--------------------------------------------

gtr1
G--------------------------------------------7-------------------
D------------4s5s4-----------7--5--4--------7---5---7--5----4----
A-----5s9s5----------5s9s5-----------5---5-----------------------
D----------------------------------------------------------------

gtr2
D----11----5----7---------
A---9--9---5--5---5--------
D--9-------5-------------- 8x

8th time do this
D----11----5-------------
A---9--9---5-------------
D--9-------5--------------
  
Repeat Chourus

4x

Outro
gtr2 (on 2x join gtr2)
D---9h10--x--x-------------4x
A---9h10--x--x-------------
d---9h10--x--x-------------

gtr2
D-----7h9--x--x----------
A-----7h9--x--x----------4x
D-----7h9--x--x----------

this took me a while but it was well worth it!
if you need any kutless songs i will try to post them online.

in christ,
Josiah
Awanabecop@aol.com

Comments about this tab

David wood - 2005-03-11

Can you please tab some of the song off the new album "strong tower"
thank you
your brother in christ
David


Surfer29 - 2005-03-22

This is a good tab, except the intro is a little off. Here is how it's supposed to go.

G--------0---0---------0---0--------0------------------------
D------0-------0-----0------------0--------12------9---------
A----9-------------9-----------10-------10------10-----9hp10-
D--0-------0-----0-------0---9--------9-------9------9-------

That's the correct way to play it, otherwise great tab


Awanabecop - 2005-03-24

Hey thanks! i wasn't paying attention really to the intro! but you corrected it
and thank you all for your ratings!
In Christ,
Josiah


Highfive1177 - 2005-06-22

This tab is totally wrong...Ill submit the correct Tab or this song shortly...


Awanabecop - 2005-07-25

correction please??? besides the intro i already got corrected on. There are no other errors!

In Christ,

Josiah


Awanabecop - 2005-08-10

Hey man send me the "correct tab" when you learn how to listen and tab out music


guitarguy38 - 2005-12-21

I think the intro goes more like this. I could be wrong, cause I dont have my guitar with me right now, but I'm pretty sure this is right.


E|------------------------------------------------------------|
B|-----------------------------------------3---3--------------|
G|-------0---0---------0---0---------0---0-------4-4----------|
D|---4---------4---4---------4---4-------------------4h5p4----|
A|-----------------------------2---2---2-----2----------------|
D|-0---0---0-----0---0---0------------------------------------|



jayemm87 - 2006-05-19

this is a great tab! thanks to you I can play one of my favorite songs by Kutless. keep up the good tabbing!


Add a comment/correction

Complimentary Christian Ringtones
Dadamobile and CGR have teamed up to bring your favorite Christian artists right to your phone. Sign up today and get 10 complementary ringtones!
Tab Country
Did you know CGR has a sister site w/ country guitar tabs? Well we do! Its called Tab Country. It has a great archive with a lot of country tabs.
Rockin Tabs
Are you looking for a site that has rock guitar tabs? Then Rockintabs.com is the place for you. It is a budding site with many rock guitar tabs. Submit your tab today.
Tab Gallery
Tab Gallery has a compilation of christian, rock, and country tabs all in one place. Come visit us.