Guitar Tabs
song title    band name

Join Us Today!

Don't strum alone...
be a part of the largest online Christian music community. Browse thousands of guitar tabs and chat w/ musicians like yourself.


It's Free!

This tab has been rated a 5.00 out of 5 for accuracy. (2 votes)Sorry, but you must be logged in to rate this tab.
Click here to log-in, or you can click here to register.
(Registration is free)

All songs owned by corresponding publishing company. If you make copies of any song on this website, be sure to report your usage to CCLI.
Submitted by: LvCmstck

Guitarras de Amor 
P.O.D 

This is the way the song sounds to me anyways.  I played with the music playing
cuz that helps out just a little bit to me. Anyways. 
So I have it by ear for the 2 lead guitars, hope you enjoy.

Intro Guitar (2) or both guitars.

e-----------------------------------
B-----------------------------------
G-----------------------------------
D---9-----9-9/12-12-10-10-9-9-h10-10 (slight delay to hammer to ten
A--7--777---------------------------
E-----------------------------------  Repeat x 2


Guitar 1

e--7-7--777-8-8-8/10--8h10p8-7--8-7-5--5-7-8-7-5-7-5-3
B-----------------------------------------------------
G-----------------------------------------------------
D-----------------------------------------------------
A-----------------------------------------------------
E-----------------------------------------------------

e--7-8--7-8-8/10-8-7-7h8p5--5-5-5-5-3-1-1--0-0--0-1-3-1-0h1h3p1--
B---------------------------------------------------------------3
G----------------------------------------------------------------
D----------------------------------------------------------------
A----------------------------------------------------------------
E----------------------------------------------------------------

Guitar 2

e---------------------------------------------------------
B---------------------------------------------------------
G---------------------------------------------------------
D---------------------------------------------------------
A--7-7--7-7-7-5-3-3h5-5--5-5-5-3--2h3-5--5-5-5-3-2-2h3-3--
E--------------------------------------------------------0  Repeat x 2


Extro or ending

Same as intro

Well that's what I got out of it by playing it by ear, if there's any problems,
please e-mail me and let me know at LvCmstck@yahoo.com.  Thanx, God Bless

Comments about this tab

Kutless Fan - 2005-03-22

just so everyone knows, "guitarras de amor" is spanish for "guitars of love." i just thought i'd share that with everyone who didn't know spanish. God bless.


spazboy20180 - 2005-05-25

great job on the tab. also, did you guys know that the song is actoually sum bible verse said backwards. if you disagree with me ok but i can't find my lyrics. lol. i was talking to a friend about it and he said he checked them and siad they were backwards. maybe it was in spanish backwards. o well. lol. any way good job on the tab


spiritfly - 2005-07-29

You right, if you play it backwards you can hear someone talking (prolly sonny), he says parts of 1st corinthians 13 i believe, along wiht some other stuff, then close to the end (well beggining, since its backwards) it just says, "This is guitars of love, this is guitars of love" a few times. goodsong, great tab.


spacecow29 - 2005-11-02

Yeah, it's definitely got some of that verse "Love is patient, love is kind...." in there. I think it's scripture outtakes mixed with their own stuff, then it goes on to that "this is the guitars of love" part. And no, it's not in Spanish, just backwards. And it's Marcos talking. really....just get on your computer, convert the song, and play it backwards....hear for yourself.


pillarmusic - 2006-05-25

just so everyone knows, "guitarras de amor" is PORTUGUESE for "guitars of love" too!".

e essa música ouvida ao contrário traz uma menssagem mto show!


aintfendergreat - 2006-06-21

beautiful...thats all I can say bout Spanish Guitar


Add a comment/correction

Complimentary Christian Ringtones
Dadamobile and CGR have teamed up to bring your favorite Christian artists right to your phone. Sign up today and get 10 complementary ringtones!
Tab Country
Did you know CGR has a sister site w/ country guitar tabs? Well we do! Its called Tab Country. It has a great archive with a lot of country tabs.
Rockin Tabs
Are you looking for a site that has rock guitar tabs? Then Rockintabs.com is the place for you. It is a budding site with many rock guitar tabs. Submit your tab today.
Tab Gallery
Tab Gallery has a compilation of christian, rock, and country tabs all in one place. Come visit us.