Guitar Tabs
song title    band name

Join Us Today!

Don't strum alone...
be a part of the largest online Christian music community. Browse thousands of guitar tabs and chat w/ musicians like yourself.


It's Free!

Ghoti Hook - Super Sumo

This tab has not yet been rated for accuracy.Sorry, but you must be logged in to rate this tab.
Click here to log-in, or you can click here to register.
(Registration is free)

All songs owned by corresponding publishing company. If you make copies of any song on this website, be sure to report your usage to CCLI.
Song: Super Sumo
Album: Sumo Surprise
Artist: Ghoti Hook
Written by: Conrad and Joel
Tabbed by: Robert Connor (Connorindy@aol.com)

Intro and verse:
e:-----------------------------------------------
b:-----------------------------------------------
g:-----------------------------------------------
d:---7-7-7-7---7-7-7-7---x-x-x-x---x-x-x-x-------    
a:---7-7-7-7---7-7-7-7---x-x-x-x---x-x-x-x-------
E:---5-5-5-5---5-5-5-5---x-x-x-x---x-x-x-x-------
lotsa times until.......
....the Chorus:
e:---------------------------------------------
b:---------------------------------------------
g:----------------7----------------------------
d:---7-7-7-7---7----5--------------------------
a:---7-7-7-7---5----5--------------------------
E:---5-5-5-5---------3-------------------------

plays this until "....thats all I'll ever try to be..." where you play
e:---------------------------------------------
b:---------------------------------------------
g:----------------7-----------------9----------
d:---7-7-7-7---7----5-----7-----7--------------
a:---7-7-7-7---5----5-----7-----7--------------
E:---5-5-5-5---------3-----5-------------------
....play that twice and you've got the chorus.
play the verse
then the chorus
then there's a bridge that goes like this:
e:---------------------------------------------
b:---------------------------------------------
g:------------9---------7-----9----------------
d:----7------9----5----7-----9-----------------  
a:----7------7----5----5-----7-----------------
E:----5------------3---------------------------
play that a couple of times.....
then there's the first verse again,
after that play the chorus ‘til the end!

This is copyrighted by 1996 Spinning Audio Vortex Publishing (BMI).
I did not write this song, nor am I claiming that I have......
.....walk on  <><

Comments about this tab

No comments/corrections found. Add your own

Complimentary Christian Ringtones
Dadamobile and CGR have teamed up to bring your favorite Christian artists right to your phone. Sign up today and get 10 complementary ringtones!
Tab Country
Did you know CGR has a sister site w/ country guitar tabs? Well we do! Its called Tab Country. It has a great archive with a lot of country tabs.
Rockin Tabs
Are you looking for a site that has rock guitar tabs? Then Rockintabs.com is the place for you. It is a budding site with many rock guitar tabs. Submit your tab today.
Tab Gallery
Tab Gallery has a compilation of christian, rock, and country tabs all in one place. Come visit us.