Guitar Tabs
song title    band name

Join Us Today!

Don't strum alone...
be a part of the largest online Christian music community. Browse thousands of guitar tabs and chat w/ musicians like yourself.


It's Free!

This tab has been rated a 4.44 out of 5 for accuracy. (9 votes)Sorry, but you must be logged in to rate this tab.
Click here to log-in, or you can click here to register.
(Registration is free)

All songs owned by corresponding publishing company. If you make copies of any song on this website, be sure to report your usage to CCLI.
Submitted by: gtrox17

Sea of Faces
Kutless

Capo 3

Tuning:
Acoustic- standard
Distorted and Clean Electric- drop D 

All tabs and chords are relative to the capo

I wrote this tab as an improvement on a few others I’ve seen.
I spent several hours listening to the song,
and then playing along with it and this is what I got.  Enjoy.

Just listen to the song to find out when they turn distortion on/off.

Acoustic Chords:
G       320033 
Cadd9   x32033
Em      022033

Intro (piano arr. for guitar with acoustic in background)

G         Cadd9   Em     Cadd9

|-3-2-3---0-0-0---3-2-3--7-8-7-5--7-5---3--|
|-3-3-3---1-1-1---3-3-3--------------------|
|------------------------------------------|
|------------------------------------------|
|------------------------------------------|
|------------------------------------------|
  
Verse (Acoustic only):
G           Cadd9         Em          Cadd9


Pre-chorus 1 (electric and acoustic; build up electric on C; play
normal chords with acoustic):

  D     Em   C
|----------------------------------|
|----------------------------------|
|----------------------------------|
|-0--0--2-2--10--10----10-10-10-10-|
|-0--0--2-2--10--10----10-10-10-10-|
|-0--0--2-2--10--10----10-10-10-10-|

Chorus (all three guitars):

  G                     D
|---------------------------------------------|
|---------------------------------------------|
|---------------------------------------------|
|-5-5--5--5-5--5--5--5--0-0--0--0-0--0--0--0--|
|-5-5--5--5-5--5--5--5--0-0--0--0-0--0--0--0--|
|-5-5--5--5-5--5--5--5--0-0--0--0-0--0--0--0--|

  C               Em        D
|-----------------------------------------|
|-----------------------------------------|
|-----------------------------------------|
|-10-10--x-10-----2-2--2--2---0--0--0--0--|
|-10-10--x-10-----2-2--2--2---0--0--0--0--|
|-10-10--x-10-----2-2--2--2---0--0—-0--0--|

Interlude:  repeat intro parts--piano and guitar

Repeat Verse 

Pre-Chorus 2 (build up on the last few C’s):
  D     Em   C              D     Em   C
|------------------------------------------------------------------|
|------------------------------------------------------------------|
|------------------------------------------------------------------|
|-0--0--2-2--10—10----------0--0--2-2--10--10-10-10-10-10-10-10-10-|
|-0--0--2-2--10-10----------0--0--2-2--10--10-10-10-10-10-10-10-10-|
|-0--0--2-2--10-10----------0--0--2-2--10--10-10-10-10-10-10-10-10-|


Chorus

Bridge: n.c. for the first part

Second part (electric w/ distortion):  

  Em                     G
  
|----------------------------------------------|
|----------------------------------------------|
|----------------------------------------------|
|-2-2--2--2-2--2--2--2---5-5--5--5-5--5--5--5--|
|-2-2--2--2-2--2--2--2---5-5--5--5-5--5--5--5--|
|-2-2--2--2-2--2--2--2---5-5--5--5-5--5--5--5--|

  A                     C             D
|-------------------------------------------------|
|-------------------------------------------------|
|-------------------------------------------------|
|-7-7--7--7-7--7--7--7--10-10--10--10-0--0--0—-0--|
|-7-7--7--7-7--7--7--7--10-10--10--10-0--0--0—-0--|
|-7-7--7--7-7--7--7--7--10-10--10--10-0--0--0—-0--|


Chorus (1st line-acoustic only through Cadd9,
then build distortion on Em and D)

  G           D             Cadd9     Em  D

  G                     D
|---------------------------------------------|
|---------------------------------------------|
|---------------------------------------------|
|-5-5--5--5-5--5--5--5--0-0--0--0-0--0--0--0--|
|-5-5--5--5-5--5--5--5--0-0--0--0-0--0--0--0--|
|-5-5--5--5-5--5--5--5--0-0--0--0-0--0--0--0--|
  C              Em        D   
|---------------------------------------|
|---------------------------------------|
|---------------------------------------|
|-10-10--x-10----2-2--2--2-0--0--0--0---|
|-10-10--x-10----2-2--2--2-0--0--0--0---|
|-10-10--x-10----2-2--2--2-0--0--0--0---|


Last chorus—repeat main chorus part, and finish on this:

  A                     C             D           G
|------------------------------------------------------|
|------------------------------------------------------|
|------------------------------------------------------|
|-7-7--7--7-7--7--7--7--10-10--10--10-0--0--0--0--5----|
|-7-7--7--7-7--7--7--7--10-10--10--10-0--0--0--0--5----|
|-7-7--7--7-7--7--7--7--10-10--10--10-0--0--0--0--5----|


In Christ, 
Patrick Brown
Gtrox17@netscape.net

Comments about this tab

gtrox17 - 2005-01-30

sorry y'all........on the chorus, acoustic plays normal chords while both electrics play the chords that I tabbed.

-PB


Techguitarman - 2005-05-16

hey great job on the tab man. keep up the good work.


chris chiew - 2006-01-13

yup this chord is well done.. Great Job.


Add a comment/correction

Complimentary Christian Ringtones
Dadamobile and CGR have teamed up to bring your favorite Christian artists right to your phone. Sign up today and get 10 complementary ringtones!
Tab Country
Did you know CGR has a sister site w/ country guitar tabs? Well we do! Its called Tab Country. It has a great archive with a lot of country tabs.
Rockin Tabs
Are you looking for a site that has rock guitar tabs? Then Rockintabs.com is the place for you. It is a budding site with many rock guitar tabs. Submit your tab today.
Tab Gallery
Tab Gallery has a compilation of christian, rock, and country tabs all in one place. Come visit us.