Guitar Tabs
song title    band name

Join Us Today!

Don't strum alone...
be a part of the largest online Christian music community. Browse thousands of guitar tabs and chat w/ musicians like yourself.


It's Free!

Ghoti Hook - South Capital Street

This tab has not yet been rated for accuracy.Sorry, but you must be logged in to rate this tab.
Click here to log-in, or you can click here to register.
(Registration is free)

All songs owned by corresponding publishing company. If you make copies of any song on this website, be sure to report your usage to CCLI.
Song: South Capitol Street
Album: Sumo Surprise
Artist: Ghoti Hook
Written by: Joel
Tabbed by: Robert Connor(Connorindy@aol.com)

The intro and verses go sorta like this: (listen to the CD for the rhythm)
e:---------------------------------------------
b:------------------------------------------------
g:---11---7---------------------------------------
d:---11---7----7----9------------------------------- 
a:---9-----5----7----9-----------------------------
E:---------------5----7----------------------------
 play that lots of times for the verses...
the chorus has three parts, the first part where it goes "I should have
walked away.." goes like this:
e:---------------------------------------------
b:---------------------------------------------
g:---6---------------7-7-----------------------
d:---6----7---9-----7-7------------------------
a:---4----7---9-----5-5------------------------
E:--------5----7-------------------------------

then where they go "woah-ohh!":
e:---------------------------------------------
b:----7--------9----10-------------------------  
g:---------------------------------------------
d:---------------------------------------------
a:---------------------------------------------
E:---------------------------------------------
play that a couple times...
....then when it speeds up play:
e:---------------------------------------------
b:----7-7-----9-9-----10-10--9-9---------------
g:---------------------------------------------
d:---------------------------------------------
a:---------------------------------------------
E:---------------------------------------------
that's the chorus!....play that thru twice, then there's 
what I call the bass interlude which goes like:
g:-------------------------------------------------
d:-------------------------------------------------
a:---9-9-9-9-5-5-5-5-------------------------------
E:------------------------5-5-5-5-7-7-7-7----------
then the guitar comes in over that with the verse
chords, song repeats and that's the lot!
This is copyrighted by 1996 Spinning Audio Vortex Publishing (BMI).
I did not write this song, nor am I claiming that I have......
.....walk on  <><

Comments about this tab

No comments/corrections found. Add your own

Complimentary Christian Ringtones
Dadamobile and CGR have teamed up to bring your favorite Christian artists right to your phone. Sign up today and get 10 complementary ringtones!
Tab Country
Did you know CGR has a sister site w/ country guitar tabs? Well we do! Its called Tab Country. It has a great archive with a lot of country tabs.
Rockin Tabs
Are you looking for a site that has rock guitar tabs? Then Rockintabs.com is the place for you. It is a budding site with many rock guitar tabs. Submit your tab today.
Tab Gallery
Tab Gallery has a compilation of christian, rock, and country tabs all in one place. Come visit us.