Guitar Tabs
song title    band name

Join Us Today!

Don't strum alone...
be a part of the largest online Christian music community. Browse thousands of guitar tabs and chat w/ musicians like yourself.


It's Free!

This tab has been rated a 4.50 out of 5 for accuracy. (2 votes)Sorry, but you must be logged in to rate this tab.
Click here to log-in, or you can click here to register.
(Registration is free)

All songs owned by corresponding publishing company. If you make copies of any song on this website, be sure to report your usage to CCLI.
Submitted by: jrb4him

Song: Rainy Day
Artist: Big Dismal
Album: The Passion of the Christ: Songs (Original songs inpsired by the film)
Tabbed By: jrb4him

I watched the video off their website and cam up with this...
this is my first full tab so let me know  how i did..thanks!

D# tuning


Intro\Verse: Accoustic Guitar

D#	|----------------------------------------------------------------
A#	|----5-------5-------5-------5--------5-------5-------5-------5--
F#	|------4---------------4----------------4----------------4-------
C#	|-2--------------------------------------------------------------
G#	|-----------------0--------2--------0--------0------0-------0----
D#	|----------4----------------------------------------------------- 
repeat until chorus


Chorus:

D#	|-----------------------------------|--------------------------
A#	|-----------------------------------|--------------------------
F#	|----9-----------------------------|----9----------------------
C#	|----9----7-----11------7-------|----9----7-----11---9---7-----
G#	|----7----7-----11------7-------|----7----7-----11---9---7-----
D#	|----------5------9------5--------|---------5------9----7---5--


Post Chorus

D#	|----------------
A#	|----------------
F#	|----------------
C#	|----4-----7----
G#	|----4-----7----
D#	|----2-----5----

Bridge 
 "Won't you come and save..."

Accoustic Riff


D#	|---------------------------------------
A#	|---------------------------------------
F#	|-----9---------9-------9---------9--
C#	|-------9------------------9-----------
G#	|-7----------6------7----------6-----
D#	|----------------------------------------  repeat entire bridge


Then Electric:


D#	|-----------------------------------|--------------------------------
A#	|-----------------------------------|--------------------------------
F#	|----9-----------------------------|--------------------------------
C#	|----9----7-----11------7-------|-------11-----9---7----------
G#	|----7----7-----11------7-------|-------11---- 9---7----------
D#	|----------5------9------5--------|-------9------7---5----------


Chorus 1x and then verse riff until the end!


God Bless, 
Jason
(jrb4him)


Comments about this tab

acolyte4Him - 2005-02-01

according to the music video, this does look more accurate than the other tab...


Seanty5986 - 2005-02-09

Good job on figuring out the tab for the versus. I played with the song and I think the chords for the pre-chorus, chorus, and bridge are a little different so this is what I came up with just by ear and by what you had to help. This is my first time posting something so bare with me if I do something wrong.

Pre-Chorus:

"On A Rainy Day..."
C# B A C# B A
Eb[------0-----0-----0----------0-----0-----0-----------]
Bb[------0-----0-----0----------0-----0-----0-----------]
Gb[------6-----8-----6----------6-----8-----6-----------]
Db[------6-----9-----7----------6-----9-----7-----------]
Ab[------4-----9-----7----------4-----9-----7-----------]
Eb[------0-----7-----5----------0-----7-----5-----------]


Chorus:

"Love..."
E A C# A
Eb[------0--------0--------0---------0------------------]
Bb[------0--------0--------0---------0------------------]
Gb[------9--------6--------6---------6------------------]
Db[------9--------7--------6---------7------------------]
Ab[------7--------7--------4---------7------------------]
Eb[------0--------5--------0---------5------------------]

"And Faith..."
E A C# B A G# F#
Eb[------0--------0--------0----0----0----0----0--------]
Bb[------0--------0--------0----0----0----0----0--------]
Gb[------9--------6--------6----8----6----5----3--------]
Db[------9--------7--------6----9----7----6----4--------]
Ab[------7--------7--------4----9----7----6----4--------]
Eb[------0--------5--------0----7----5----4----2--------]

"I Can See It In The Clouds..."
F# A
Eb[------0--------0-------------------------------------]
Bb[------0--------0-------------------------------------]
Gb[------3--------6-------------------------------------]
Db[------4--------7-------------------------------------]
Ab[------4--------7-------------------------------------]
Eb[------2--------5-------------------------------------]


Bridge:
"Won't You Come..."
E E/D#* C# A B
Eb[------0--------0--------0--------0----0--------------]
Bb[------0--------0--------0--------0----0--------------]
Gb[------9--------8--------6--------6----8--------------] (Repeat)
Db[------9--------9--------6--------7----9--------------]
Ab[------7--------7--------4--------7----9--------------]
Eb[------0--------0--------0--------5----7--------------]


Instrumental:
C# B A
Eb[------0--------0--------0----------------------------]
Bb[------0--------0--------0----------------------------]
Gb[------6--------8--------6----------------------------]
Db[------6--------9--------7----------------------------]
Ab[------4--------9--------7----------------------------]
Eb[------0--------7--------5----------------------------]



*It's really a E/G#, but it sounds okay like this and if you're playing with a band the bass would hit the G# for you

The G# on the chorus sounds wrong but I can hear the bass play a G# there. I'm just not sure how they play it on the guitar


Seanty5986 - 2005-02-09

Okay I think the I figured out the G# and the F# on the Chorus

The G# is:
Eb[-----0-----]
Bb[-----0-----]
Gb[-----4-----]
Db[-----6-----]
Ab[-----6-----]
Eb[-----4-----]

The F# is:
Eb[-----0-----]
Bb[-----0-----]
Gb[-----2-----]
Db[-----4-----]
Ab[-----4-----]
Eb[-----2-----]


Seanty5986 - 2005-02-09

On second thought that G# doesn't sound that great I guess the best thing to do would be to play an E/G# and if you have trouble moving your fingers there you can use a partial capo and still be able to play all the other chords the same way.

E/G#:
[---0----]
[---0----]
[---4----]
[---2----]
[---2----]
[---4----]


Add a comment/correction

Complimentary Christian Ringtones
Dadamobile and CGR have teamed up to bring your favorite Christian artists right to your phone. Sign up today and get 10 complementary ringtones!
Tab Country
Did you know CGR has a sister site w/ country guitar tabs? Well we do! Its called Tab Country. It has a great archive with a lot of country tabs.
Rockin Tabs
Are you looking for a site that has rock guitar tabs? Then Rockintabs.com is the place for you. It is a budding site with many rock guitar tabs. Submit your tab today.
Tab Gallery
Tab Gallery has a compilation of christian, rock, and country tabs all in one place. Come visit us.