Guitar Tabs
song title    band name

Join Us Today!

Don't strum alone...
be a part of the largest online Christian music community. Browse thousands of guitar tabs and chat w/ musicians like yourself.


It's Free!

This tab has been rated a 4.00 out of 5 for accuracy. (1 vote)Sorry, but you must be logged in to rate this tab.
Click here to log-in, or you can click here to register.
(Registration is free)

All songs owned by corresponding publishing company. If you make copies of any song on this website, be sure to report your usage to CCLI.
Submitted by: ItsNeverEnough

Song: Broke In The Head
Artist: Bleach
Tabbed By: Scott W. Harris


Intro/Verse 1:

e[------------------------------------------]
B[------------------------------------------]
G[---------------------5555555555555555-----] Play once then palm muted
D[--5-5--5555-55555555-5555555555555555-----] throughout the rest of the
A[--5-5--5555-55555555-3333333333333333-----] verse.
E[--3-3--3333-22222222----------------------]
        [..........Palm muted..........]

e[-----------------------------------------]
B[-----------------------------------------]
G[--------------------5555555555555555-----]
D[--55555555-55555555-5555555555555555-----]
A[--55555555-55555555-3333333333333333-----]
E[--33333333-22222222----------------------]
   [............Palm muted............] 

Chorus: 

e[-----------------------------------------]
B[-----------------------------------------]
G[------------7-7-x7x7--5555555555555555---]  
D[--5-5-x5x5--7-7-x7x7--5555555555555555---]
A[--5-5-x5x5--5-5-x5x5--3333333333333333---]
E[--3-3-x3x3-------------------------------]



Verse 2:

Guitar 1: The same palm muting.

Guitar 2: 

e[-------------------------]
B[-------------------------]
G[---77755544--77755544----]
D[-------------------------]
A[-------------------------]
E[-------------------------]


Chorus 2:

e[-----------------------------------------]
B[-----------------------------------------]
G[------------7-7-x7x7--5555555555555555---]  
D[--5-5-x5x5--7-7-x7x7--5555555555555555---]
A[--5-5-x5x5--5-5-x5x5--3333333333333333---]
E[--3-3-x3x3-------------------------------]

Play twice then this twice:

e[-----------------------------------------]
B[-----------------------------------------]
G[------------77777777--5555555555555555---]  
D[--55555555--77777777--5555555555555555---]
A[--55555555--55555555--3333333333333333---]
E[--33333333-------------------------------]

    
Bridge:

Part 1:

e[------------------------]
B[------------------------]
G[------------77777777----]  
D[--77777777--77777777----]
A[--77777777--55555555----]
E[--55555555--------------]


Part 2:

Guitar 1:

e[--------------------------------------------]
B[--------------------------------------------]
G[---12-11-9-7-9 11-12----12-11-9-7-9 11-12---]
D[--------------------------------------------]
A[--------------------------------------------]
E[--------------------------------------------]

Guitar 2:

e[-------------------------]
B[-------------------------]
G[---77755544--77755544----]
D[-------------------------]
A[-------------------------]
E[-------------------------]

Chorus 3:

e[-----------------------------------------]
B[-----------------------------------------]
G[------------7-7-x7x7--5555555555555555---]  
D[--5-5-x5x5--7-7-x7x7--5555555555555555---]
A[--5-5-x5x5--5-5-x5x5--3333333333333333---]
E[--3-3-x3x3-------------------------------]

Play twice then play this:

e[--------------------------------------------]
B[--------------------------------------------]
G[-------------7-7--Pic----5555555555555555---]  
D[--5-5--------7-7--Slide--5555555555555555---]
A[--5-5--Pic---5-5---------3333333333333333---]
E[--3-3--Slide--------------------------------]

Ending:

Guitar 1:

e[-----------------------------------------]
B[-----------------------------------------]
G[------------77777777--5555555555555555---]  Play till the end of the song.
D[--55555555--77777777--5555555555555555---]
A[--55555555--55555555--3333333333333333---]
E[--33333333-------------------------------]

Guitar 2:

e[-----------------------------]
B[-----------------------------]
G[---12-12-11-11-12-12-11-11---] Play till the end of the song.
D[-----------------------------]
A[-----------------------------]
E[-----------------------------]

End on C.


Thats about it. It's about 100% correct. Enjoy and God Bless.
Scott W. Harris

Comments about this tab

monkeyskater392 - 2006-06-08

you didnt put in the solo, other than that its perfect


monkeyskater392 - 2006-06-08

here's the solo;
guitar 1
d[-7b-5-3-5-7-7-7d] 2x

the second time guitar 1 does that and guitar 2 does this:

g[-77755544-]


Add a comment/correction

Complimentary Christian Ringtones
Dadamobile and CGR have teamed up to bring your favorite Christian artists right to your phone. Sign up today and get 10 complementary ringtones!
Tab Country
Did you know CGR has a sister site w/ country guitar tabs? Well we do! Its called Tab Country. It has a great archive with a lot of country tabs.
Rockin Tabs
Are you looking for a site that has rock guitar tabs? Then Rockintabs.com is the place for you. It is a budding site with many rock guitar tabs. Submit your tab today.
Tab Gallery
Tab Gallery has a compilation of christian, rock, and country tabs all in one place. Come visit us.