Guitar Tabs
song title    band name

Join Us Today!

Don't strum alone...
be a part of the largest online Christian music community. Browse thousands of guitar tabs and chat w/ musicians like yourself.


It's Free!

This tab has been rated a 4.75 out of 5 for accuracy. (4 votes)Sorry, but you must be logged in to rate this tab.
Click here to log-in, or you can click here to register.
(Registration is free)

All songs owned by corresponding publishing company. If you make copies of any song on this website, be sure to report your usage to CCLI.
Submitted by: brandeh

Kutless
Your Touch


 repeated 3 times played 3 times w/ distortion after G5 Bb5 C5    G5 Bb5 F5
e------------------------------------------------  -------------x--------------
B----------------------2---------2------------2--  -------------x--------------
G-----------3--------3--3------5--5---------3--3-  ------3--5---x-----3--------
D--------5---5-----3---------5-----5------3------  ---5--3--5---x--5--3--3-----
A-----5----------1---------3--------3--3/1-------  ---5--1--3---x--5--1--3-----
E--3---------------------------------------------  ---3---------x--3-----1-----


you more or less continue the G-Bb-F pattern until you get to this part (about 2:11) I have this
done 2 ways...one with a 7-string ( BEADGbe) and a drop d 6 string (DADGBE)
play 8X          play 15x
----------  --------------------------
----------  --------------------------
----------  --------------------------
----------  --------------------------
--3p1-----  --------------------------
-----3h5--  --------1h3-----3p1-------
---------3  ----3-3-----3-3-----------

After this you return to the G- Bb -F thing til the end

Comments about this tab

brandeh - 2004-12-26

I forgot to do it in drop d doh! lol

e---------------
b---------------
g---------------
d---------------
a-3h1-----------
d-----5h7-0-----

also i messed up on the beggining riff
it changes on the way down
-----------------------------------------
----------------1--------4----------2----
-------3------3--3-----5---5------3---3--
-----5--5---3--------5------5---3--------
---5------1--------3----------1----------
-3---------------------------------------

more like that


matt j t - 2005-10-08

cool


miky-kim070 - 2006-05-10

if this song is in drop d, which it is, you wouldn't use 3 on the low E string, you'd use 5 for the intro.


Add a comment/correction

Complimentary Christian Ringtones
Dadamobile and CGR have teamed up to bring your favorite Christian artists right to your phone. Sign up today and get 10 complementary ringtones!
Tab Country
Did you know CGR has a sister site w/ country guitar tabs? Well we do! Its called Tab Country. It has a great archive with a lot of country tabs.
Rockin Tabs
Are you looking for a site that has rock guitar tabs? Then Rockintabs.com is the place for you. It is a budding site with many rock guitar tabs. Submit your tab today.
Tab Gallery
Tab Gallery has a compilation of christian, rock, and country tabs all in one place. Come visit us.