Guitar Tabs
song title    band name

Join Us Today!

Don't strum alone...
be a part of the largest online Christian music community. Browse thousands of guitar tabs and chat w/ musicians like yourself.


It's Free!

This tab has been rated a 1.83 out of 5 for accuracy. (6 votes)Sorry, but you must be logged in to rate this tab.
Click here to log-in, or you can click here to register.
(Registration is free)

All songs owned by corresponding publishing company. If you make copies of any song on this website, be sure to report your usage to CCLI.
Submitted by: relientk4eva777

Who I am Hates Who I've Been
Relient K
MmHmm

Alright guys, I know that Relient k has been messing with new tuning methods
for this album, but fear not, some of the songs can be done in normal tuning,
Just a matter of transposing....

The beginning part is really tricky and has a lot of pull-offs, I will post
that later (hopefully), here are the chords pretty much...

Beginning...

Standard EADGBE

--------------------------
--------------------------
--------------------------
6-6-8-8-8-10-10-10-10-8-8-
6-6-8-8-8-10-10-10-10-8-8-   repeat
4-4-6-6-6-8--8--8--8--6-6-

"I watched the preverbial sunrise..."

Piano for Guitar
--------------------------
--------------------------
8-------------------------   repeat
8----6----10----8---------
6----6----10----8---------
-----4----8-----6---------    

Basically the same whenever the guitar actually does kick in.

"cause I dont want you to know..."

then it bust in with distortion..

---------------------------------
---------------------------------
---------------------------------
6-6-6-6-6-8-8-8-8-8-8-8----------
6-6-6-6-6-8-8-8-8-8-8-8----------
4-4-4-4-4-6-6-6-6-6-6-6----------

"Stop right there..."

---------------------------------
---------------------------------
8-8-8-8--------------------------
8-8-8-8--8-8-8-6-6-6-8-8-8-------   repeat
6-6-6-6--8-8-8-6-6-6-8-8-8-------
---------6-6-6-4-4-4-6-6-6-------

"The very moment..."

---------------------------------
---------------------------------
---------------------------------
6-6-6-6-6-6-8-8-8-8-8-88888888888
6-6---6-6---8-8---8-8-88888888888
4-4---4-4---6-6---6-6-66666666666

"I'm sorry for...."

----------------------------------------------------------
----------------------------------------------------------
8-8-8-8-8-8-8-8-8-8---------------------------------------  repeat
8-8-8-8-8-8-8-8-8-8---8-8-8-10-10-1010101010101010--6-6-6-
6-6-6-6-6-6-6-6-6-6---x-x-x-x--x--x-10101010101010--6-6-6-
----------------------6-6-6-8--8--8-8-8-8-8-8-8-8---4-4-4-

That is pretty much the song, again some more too the bridge
but I dont have it fully down but I got something to get you started..
any questions email me...

Comments about this tab

Mmhmm - 2004-12-24

Hmm. No, this song is definitely tuned down a half-step. Mxtabs.net has a perfect tab for it. Nice try though; keep working at it!


bassforlyfe14 - 2005-03-14

could you try to get this song in bass tabs!.....this is like my favorite song eva and you dont have it!! please try to get it in bass tabs....please!


guitargirl232 - 2005-06-10

thanks soooo much for having the lyrics with this song!


bandgeek - 2005-11-05

hey. i like the tab and all but i really stink at lead. do you know what the chords are. anyone? please post them! i love this song but i cant' play lead! TX!


xchickrockerx - 2006-01-06

hey bassforlyfe, throughout the whole song just play the lowest note of what is written in this tab for guitar. like if its written:

d--8
a--4
e--4

just play the lowest 4, on the e string. i dont know if there is a specific bass part that doesnt just flow with guitar, because im not listening to it right now, but ill try to get back to you with the bass tabs.


ilovguitar272 - 2006-02-03

thnx for havin the lyrics wit it


rokrdude - 2006-04-08

if you want the intro go to ultimate-guitar.com


Add a comment/correction

Complimentary Christian Ringtones
Dadamobile and CGR have teamed up to bring your favorite Christian artists right to your phone. Sign up today and get 10 complementary ringtones!
Tab Country
Did you know CGR has a sister site w/ country guitar tabs? Well we do! Its called Tab Country. It has a great archive with a lot of country tabs.
Rockin Tabs
Are you looking for a site that has rock guitar tabs? Then Rockintabs.com is the place for you. It is a budding site with many rock guitar tabs. Submit your tab today.
Tab Gallery
Tab Gallery has a compilation of christian, rock, and country tabs all in one place. Come visit us.