Guitar Tabs
song title    band name

Join Us Today!

Don't strum alone...
be a part of the largest online Christian music community. Browse thousands of guitar tabs and chat w/ musicians like yourself.


It's Free!

This tab has been rated a 4.80 out of 5 for accuracy. (5 votes)Sorry, but you must be logged in to rate this tab.
Click here to log-in, or you can click here to register.
(Registration is free)

All songs owned by corresponding publishing company. If you make copies of any song on this website, be sure to report your usage to CCLI.
Submitted by: IncuThrice07

-------------------------------------------------------------------------------
                 NOT TO US - Chris Tomlin
--------------------------------------------------------------------------------

By:  Gary(garyhale@spu.edu)

~   - let ring out
/ \ - slide
trp - triplet


GUITAR 1'S PARTS:
-----------------
Chords Used:
   B5   E5   G#5 F#5 
e|----------------------|
B|----------------------|
G|--4>------------------|
D|--4>---2>---6>--4>----|
A|--2>---2>---6>--4>----|
E|-------0>---4>--2>----|

Intro:  B5 - E5 - G#5 - F#5 - E5

Verse:
B5                                 G#5

                                   F#5

              E5

               B5

B5                                   G#5

                                      F#5

               E5

               B5



Chorus:
B5                         E5

Repeat Intro

Repeat Verse

Repeat Chorus

Bridge:
     B5                                    E5
     G#5                    F#5          E5
    B5                              E5
      G#5                F#5          E5
                                 B5
           E5   G#5   F#5  E5
            B5

Repeat Chorus:  (4x)

End on: B5


GUITAR 2'S PARTS:
-----------------
Intro:  (Repeat lots)
e|----------19----------19----19------|
B|17--17-17----17-17-17----17---------|
G|--------------(trp)-----------------|
D|------------------------------------|
A|------------------------------------|
E|------------------------------------|

Intro Cont'd:
e|7---7---7---7---9---9-11---11---11-12---12-11---11---11-12---12-11---11----|
B|--0---0---0---0---0------0----0-------0-------0----0-------0-------0----0--|
G|---------------------------------------------------------------------------|
D|---------------------------------------------------------------------------|
A|---------------------------------------------------------------------------|
E|---------------------------------------------------------------------------|

Intro Cont'd:
e|11--7---7---7---7---9---9---9---9---11---11-12---12---12-11---11-12---12---|
B|------0---0---0---0---0---0---0---0----0-------0----0-------0-------0----0-|
G|---------------------------------------------------------------------------|
D|---------------------------------------------------------------------------|
A|---------------------------------------------------------------------------|
E|---------------------------------------------------------------------------|

Intro Cont'd:
e|12-11~----|
B|----------|
G|----------|
D|----------|
A|----------|
E|----------|

Verse:  "The cross before..."
e|--7~--6----------------------7~--6--------------------14~------------------|
B|7-------7~----7--7--7~----7--------7~---7--7~---12-12------12~-------------|
G|---------------------------------------------------------------------------|
D|---------------------------------------------------------------------------|
A|---------------------------------------------------------------------------|
E|---------------------------------------------------------------------------|

Verse Cont'd:
e|--7~--6---------------------------7~--6------------7------------7----------|
B|7-------7~-----7~----7~---7---7~--------7~-----7-----7~-----7-----7~-------|
G|-------------4-----4--------4----------------4---4--------4---4------------|
D|---------------------------------------------------------------------------|
A|---------------------------------------------------------------------------|
E|---------------------------------------------------------------------------|

Chorus:  (2x)  "Not to us..."
e|7---7---7---7---9---9-11---11---11-5---5-4---4---4-5---5-4---4---4---------|
B|--0---0---0---0---0------0----0------0-----0---0-----0-----0---0-----------|
G|---------------------------------------------------------------------------|
D|---------------------------------------------------------------------------|
A|---------------------------------------------------------------------------|
E|---------------------------------------------------------------------------|

Bridge:

e|7---7---7---7---9---9---9---9---11---11-12---12---12-5---5-4---4---4-------|
B|--0---0---0---0---0---0---0---0----0-------0----0------0-----0---0---------|
G|---------------------------------------------------------------------------|
D|---------------------------------------------------------------------------|
A|---------------------------------------------------------------------------|
E|---------------------------------------------------------------------------|

Repeat Verse:  (Small variations in what he plays)

Repeat Chorus

Bridge:  "The earth is shaking..."
e|14-14-14--------14-14-14---------------14-14----------------14-14----------|
B|---------12--12----------12--12--12-12-------12--12---12-12-------12--12---|
G|---------------------------------------------------------------------------|
D|---------------------------------------------------------------------------|
A|---------------------------------------------------------------------------|
E|---------------------------------------------------------------------------|

Bridge Cont'd:
e|-------------------------------------11-------11-----11-----------19-------|
B|---12-12~-----12-------12----12--/12----12-12-----12----12-----------------|
G|13--------13-----15-15----15--------------------------------16-16----16-16-|
D|---------------------------------------------------------------------------|
A|---------------------------------------------------------------------------|
E|---------------------------------------------------------------------------|

Bridge Cont'd:
e|19---|
B|-----|
G|-----|
D|-----|
A|-----|
E|-----|

Bridge Cont'd:  "The universe is spinning..."
  (Strumming not defined, but just mix it up playing single notes)
e|-19----------|
B|-19----------|
G|-16----------|
D|-------------|
A|-------------|
E|-------------|

Bridge Cont'd:  "Children dancing..."
e|-------------------------------------11-------11-----11----11----11--------|
B|---12-12~-----12-------12----12--/12----12-12-----12----12----12----12-----|
G|13--------13-----15-15----15-----------------------------------------------|
D|---------------------------------------------------------------------------|
A|---------------------------------------------------------------------------|
E|---------------------------------------------------------------------------|

Outro:  "My all for you..."  (4x)
e|-12---12-11---11-----------------------------------------------------------|
B|----0-------0----0-0-------------------------------------------------------|
G|---------------------------------------------------------------------------|
D|---------------------------------------------------------------------------|
A|---------------------------------------------------------------------------|
E|---------------------------------------------------------------------------|

Outro Cont'd:
e|14-----14-----14-------12-----12-------------19-------19-------19-------19-|
B|---0-0----0-0----0-0-0----0-0----0-0-0-16-16----16-16----16-16----16-16----|
G|-----------------(trp)-----------------------------------------------------|
D|---------------------------------------------------------------------------|
A|---------------------------------------------------------------------------|
E|---------------------------------------------------------------------------|

Outro Cont'd:
e|------19--------|
B|16-16----16-----|
G|----------------|
D|----------------|
A|----------------|
E|----------------|

Outro Cont'd:
e|14----14----14----------14----14----14--------------14----14------------14-|
B|---12----12----12-12-12----12----12----12-12-12--12----12----12--12--12----|
G|---------------------------------------------------------------------------|
D|---------------------------------------------------------------------------|
A|---------------------------------------------------------------------------|
E|---------------------------------------------------------------------------|

Outro Cont'd:
e|-------------------------------------11-------11-----11----11----11--------|
B|---12-12~-----12-------12----12--/12----12-12-----12----12----12----12-----|
G|13--------13-----15-15----15-----------------------------------------------|
D|---------------------------------------------------------------------------|
A|---------------------------------------------------------------------------|
E|---------------------------------------------------------------------------|

Outro Cont'd:  (2x)
e|-12---12-11---11----------|
B|----0-------0----0-0------|
G|--------------------------|
D|--------------------------|
A|--------------------------|
E|--------------------------|

Outro Cont'd:
e|14-----14-----14-------12-----12-------------19-------19-------19-------19-|
B|---0-0----0-0----0-0-0----0-0----0-0-0-16-16----16-16----16-16----16-16----|
G|-----------------(trp)-----------------------------------------------------|
D|---------------------------------------------------------------------------|
A|---------------------------------------------------------------------------|
E|---------------------------------------------------------------------------|

Outro Cont'd:
e|14----14----14----------14----14----14--------------14----14------------14-|
B|---12----12----12-12-12----12----12----12-12-12--12----12----12--12--12----|
G|---------------------------------------------------------------------------|
D|---------------------------------------------------------------------------|
A|---------------------------------------------------------------------------|
E|---------------------------------------------------------------------------|

Outro Cont'd:
e|-------------------------------------11-------11-----11----11----11--------|
B|---12-12~-----12-------12----12--/12----12-12-----12----12----12----12-----|
G|13--------13-----15-15----15-----------------------------------------------|
D|---------------------------------------------------------------------------|
A|---------------------------------------------------------------------------|
E|---------------------------------------------------------------------------|

End on:
e|----11~------|
B|-------------|
G|-------------|
D|-------------|
A|-------------|
E|-------------|

Sorry if the outro isn't perfect...I got tired.
Visit http://www.geocities.com/ggtabs07 for more tabs.
===============================================================================

Comments about this tab

yulittle03 - 2005-12-03

does neone know what pedal the electric uses?


krnkink7 - 2007-02-07

seriously.. anyone know? also wat guitar? i'm guessing a standard strat.


Add a comment/correction

Complimentary Christian Ringtones
Dadamobile and CGR have teamed up to bring your favorite Christian artists right to your phone. Sign up today and get 10 complementary ringtones!
Tab Country
Did you know CGR has a sister site w/ country guitar tabs? Well we do! Its called Tab Country. It has a great archive with a lot of country tabs.
Rockin Tabs
Are you looking for a site that has rock guitar tabs? Then Rockintabs.com is the place for you. It is a budding site with many rock guitar tabs. Submit your tab today.
Tab Gallery
Tab Gallery has a compilation of christian, rock, and country tabs all in one place. Come visit us.