Guitar Tabs
song title    band name

Join Us Today!

Don't strum alone...
be a part of the largest online Christian music community. Browse thousands of guitar tabs and chat w/ musicians like yourself.


It's Free!

This tab has been rated a 5.00 out of 5 for accuracy. (3 votes)Sorry, but you must be logged in to rate this tab.
Click here to log-in, or you can click here to register.
(Registration is free)

All songs owned by corresponding publishing company. If you make copies of any song on this website, be sure to report your usage to CCLI.
Submitted by: KingJaymz

NOTE: I feel like this is the right tab for the song. Sounds pretty accurate 
when I play it

Vitamin R (Leading Us Along)
by Chevelle
Copyright 2004
Tabbed by Chris Yount

<> natural harmonics
|      |
|      |
|*    *|
|*    *|   = Repeat section
|      |
|      |
Drop B tuning: B F# B E G# C# (B Gb B E Ab Db)

C#||---------------------------------------|
G#||---------------------------------------|
E ||*--9--9-9-9-9--9-9-9-9--9-9-9-9--9-9-9-|
B ||*--0--0-0-0-0--0-0-0-0--0-0-0-0--0-0-0-|
F#||---0--0-0-0-0--0-0-0-0--0-0-0-0--0-0-0-|
B ||---0-----------------------------------|

---------------------------------------||
---------------------------------------||
--7--7-7-7-7--7-7-7-7--7-7-7-7--7-7-7-*||
--0--0-0-0-0--0-0-0-0--0-0-0-0--0-0-0-*||
--0--0-0-0-0--0-0-0-0--0-0-0-0--0-0-0--||
--0------------------------------------||                                         
              
------------------------------------------------------|
------------------------------------------------------|
--10--10-10-10-10--10-10-10-10--10-10-10-10--10-10-10-|
--0---0--0--0--0---0--0--0--0---0--0--0--0---0--0--0--|
--0------------0------------0------------0------------|
------------------------------------------------------|
PM.   .  .  .  .   .  .  .  .   .  .  .  .   .  .  .

--------------------------------------|
--9--9-9-9-9--9-9-9-9--9-9-9-9--9-9-9-|
--0--0-0-0-0--0-0-0-0--0-0-0-0--0-0-0-|
--0--------0--------0--------0--------|
--------------------------------------|
PM.  . . . .  . . . .  . . . .  . . .

------------------------------------------------------|
------------------------------------------------------|
--10--10-10-10-10--10-10-10-10--10-10-10-10--10-10-10-|
--0---0--0--0--0---0--0--0--0---0--0--0--0---0--0--0--|
--0------------0------------0------------0------------|
------------------------------------------------------|
PM.   .  .  .  .   .  .  .  .   .  .  .  .   .  .  .

--------------------------------------|
--------------------------------------|
--9--9-9-9-9--9-9-9-9--9-9-9-9--9-9-9-|
--0--0-0-0-0--0-0-0-0--0-0-0-0--0-0-0-|
--0--------0--------0--------0--------|
--------------------------------------|
PM.  . . . .  . . . .  . . . .  . . .

------------------------------------------------------|
------------------------------------------------------|
--10--10-10-10-10--10-10-10-10--10-10-10-10--10-10-10-|
--8---8--8--8--8---8--8--8--8---8--8--8--8---8--8--8--|
--8------------8------------8------------8------------|
------------------------------------------------------|
PM.   .  .  .  .   .  .  .  .   .  .  .  .   .  .  .
                                       
--------------------------------------|
--------------------------------------|
--9--9-9-9-9--9-9-9-9--9-9-9-9--9-9-9-|
--8--8-8-8-8--8-8-8-8--8-8-8-8--8-8-8-|
--8--------8--------8--------8--------|
--------------------------------------|
PM.  . . . .  . . . .  . . . .  . . .
                                                       
------------------------------------------------------|
------------------------------------------------------|
--10--10-10-10-10--10-10-10-10--10-10-10-10--10-10-10-|
--8---8--8--8--8---8--8--8--8---8--8--8--8---8--8--8--|
--8----------------8------------8--------8------------|
------------------------------------------------------|
PM.   .  .  .  .   .  .  .  .   .  .  .  .   .  .  .
                                                                              
--------------------------------------|
--------------------------------------|
--9--9-9-9-9--9-9-9-9--9-9-9-9--9-9-9-|
--8--8-8-8-8--8-8-8-8--8-8-8-8--8-8-8-|
--8--------8--------8--------8--------|
--------------------------------------|
PM.  . . . .  . . . .  . . . .  . . .  

--------------------------------------|
--------------------------------------|
--------------------------------------|
--------------------------------------|
--------------------------------------|
--0--0-0-0-0--0-0-0-0--0-0-0-0--0-0-0-|
PM.  . . . .  . . . .  . . . .  . . .
                                                                              
--------------------------------------|
--------------------------------------|
--------------------------------------|
--------------------------------------|
--------------------------------------|
--3--3-3-3-3--3-3-3-3--3-3-3-3--3-3-3-|
PM.  . . . .  . . . .  . . . .  . . .  

--------------------------------------|
--------------------------------------|
--------------------------------------|
--------------------------------------|
--------------------------------------|
--0--0-0-0-0--0-0-0-0--0-0-0-0--0-0-0-|
PM.  . . . .  . . . .  . . . .  . . .
                                       
--------------------------------------|
--------------------------------------|
--------------------------------------|
--------------------------------------|
--------------------------------------|
--5--5-5-5-5--5-5-5-3--3-3-3-3--3-3-3-|
PM.  . . . .  . . . .  . . . .  . . .


Chorus                                                   
|------------<9>-<9>-<9>-<9>-----------------------|
|------------<9>-<9>-<9>-<9>-----------------------|
|*-----------<9>-<9>-<9>-<9>-----------------------|
|*--8--8-8-8-<9>-<9>-<9>-<9>-8--8-8-8/10--10-10-10-|
|---8--8-8-8-----------------8--8-8-8/10--10-10-10-|
|---8--8-8-8-----------------8--8-8-8/10--10-10-10-|


                                                                               
-----------<9>-<9>-<9>-<9>--------------------|
-----------<9>-<9>-<9>-<9>--------------------|
-----------<9>-<9>-<9>-<9>-------------------*|
--5--5-5-5-<9>-<9>-<9>-<9>-5--5-5-5-3--3-3-3-*|
--5--5-5-5-----------------5--5-5-5-3--3-3-3--|
--5--5-5-5-----------------5--5-5-5-3--3-3-3--|

|--------------------------------------|
|--------------------------------------|
|--9--9-9-9-9--9-9-9-9--9-9-9-9--9-9-9-|
|--0--0-0-0-0--0-0-0-0--0-0-0-0--0-0-0-|
|--0--0-0-0-0--0-0-0-0--0-0-0-0--0-0-0-|
|--0-----------------------------------|
                                       
--------------------------------------|
--------------------------------------|
--7--7-7-7-7--7-7-7-7--7-7-7-7--7-7-7-|
--0--0-0-0-0--0-0-0-0--0-0-0-0--0-0-0-|
--0--0-0-0-0--0-0-0-0--0-0-0-0--0-0-0-|
--0-----------------------------------|


                                                       
------------------------------------------------------|
------------------------------------------------------|
--10--10-10-10-10--10-10-10-10--10-10-10-10--10-10-10-|
--0---0--0--0--0---0--0--0--0---0--0--0--0---0--0--0--|
--0------------0------------0------------0------------|
------------------------------------------------------|
PM.   .  .  .  .   .  .  .  .   .  .  .  .   .  .  .

                                       
--------------------------------------|
--------------------------------------|
--9--9-9-9-9--9-9-9-9--9-9-9-9--9-9-9-|
--0--0-0-0-0--0-0-0-0--0-0-0-0--0-0-0-|
--0--------0--------0--------0--------|
--------------------------------------|
PM.  . . . .  . . . .  . . . .  . . .

                                                       
------------------------------------------------------|
------------------------------------------------------|
--10--10-10-10-10--10-10-10-10--10-10-10-10--10-10-10-|
--0---0--0--0--0---0--0--0--0---0--0--0--0---0--0--0--|
--0------------0------------0------------0------------|
------------------------------------------------------|
PM.   .  .  .  .   .  .  .  .   .  .  .  .   .  .  .

                                       
--------------------------------------|
--------------------------------------|
--9--9-9-9-9--9-9-9-9--9-9-9-9--9-9-9-|
--0--0-0-0-0--0-0-0-0--0-0-0-0--0-0-0-|
--0--------0--------0--------0--------|
--------------------------------------|
PM.  . . . .  . . . .  . . . .  . . .

                                                       
------------------------------------------------------|
------------------------------------------------------|
--10--10-10-10-10--10-10-10-10--10-10-10-10--10-10-10-|
--8---8--8--8--8---8--8--8--8---8--8--8--8---8--8--8--|
--8------------8------------8------------8------------|
------------------------------------------------------|
PM.   .  .  .  .   .  .  .  .   .  .  .  .   .  .  .

                                       
--------------------------------------|
--------------------------------------|
--9--9-9-9-9--9-9-9-9--9-9-9-9--9-9-9-|
--8--8-8-8-8--8-8-8-8--8-8-8-8--8-8-8-|
--8--------8--------8--------8--------|
--------------------------------------|
PM.  . . . .  . . . .  . . . .  . . .  

                                                       
------------------------------------------------------|
------------------------------------------------------|
--10--10-10-10-10--10-10-10-10--10-10-10-10--10-10-10-|
--8---8--8--8--8---8--8--8--8---8--8--8--8---8--8--8--|
--8----------------8------------8--------8------------|
------------------------------------------------------|
PM.   .  .  .  .   .  .  .  .   .  .  .  .   .  .  .

                                                                              
--------------------------------------|
--------------------------------------|
--9--9-9-9-9--9-9-9-9--9-9-9-9--9-9-9-|
--8--8-8-8-8--8-8-8-8--8-8-8-8--8-8-8-|
--8--------8--------8--------8--------|
--------------------------------------|
PM.  . . . .  . . . .  . . . .  . . .  

--------------------------------------|
--------------------------------------|
--------------------------------------|
--------------------------------------|
--------------------------------------|
--0--0-0-0-0--0-0-0-0--0-0-0-0--0-0-0-|
PM.  . . . .  . . . .  . . . .  . . .
                                                                              
--------------------------------------|
--------------------------------------|
--------------------------------------|
--------------------------------------|
--------------------------------------|
--3--3-3-3-3--3-3-3-3--3-3-3-3--3-3-3-|
PM.  . . . .  . . . .  . . . .  . . .  

--------------------------------------|
--------------------------------------|
--------------------------------------|
--------------------------------------|
--------------------------------------|
--0--0-0-0-0--0-0-0-0--0-0-0-0--0-0-0-|
PM.  . . . .  . . . .  . . . .  . . .
                                       
--------------------------------------|
--------------------------------------|
--------------------------------------|
--------------------------------------|
--------------------------------------|
--5--5-5-5-5--5-5-5-3--3-3-3-3--3-3-3-|
PM.  . . . .  . . . .  . . . .  . . .


Chorus                                            
|------------<9>-<9>-<9>-<9>-----------------------|
|------------<9>-<9>-<9>-<9>-----------------------|
|*-----------<9>-<9>-<9>-<9>-----------------------|
|*--8--8-8-8-<9>-<9>-<9>-<9>-8--8-8-8/10--10-10-10-|
|---8--8-8-8-----------------8--8-8-8/10--10-10-10-|
|---8--8-8-8-----------------8--8-8-8/10--10-10-10-|


                                                                    
-----------<9>-<9>-<9>-<9>--------------------|
-----------<9>-<9>-<9>-<9>--------------------|
--5--5-5-5-<9>-<9>-<9>-<9>-5--5-5-5-3--3-3-3-*|
-----------<9>-<9>-<9>-<9>-------------------*|
--5--5-5-5-----------------5--5-5-5-3--3-3-3--|
--5--5-5-5-----------------5--5-5-5-3--3-3-3--|

|---------------------------|
|---------------------------|
|*--5--5----5-5-7--7----7-7-|
|*--3--3----3-3-5--5----5-5-|
|---3--3----3-3-5--5----5-5-|
|---3--3----3-3-5--5----5-5-|
                                     2x                           
---------------------------------------|
---------------------------------------|
--7--------7--------7--------7--------*|
--7--------7--------7--------5--------*|
--5--0--0--5--0--0--5--0--0--5--0--0---|
-----0--0-----0--0-----0--0-----0--0---|

|--------------------------|
|--------------------------|
|--5--5----5-5-7--7----7-7-|
|--3--3----3-3-5--5----5-5-|
|--3--3----3-3-5--5----5-5-|
|--3--3----3-3-5--5----5-5-|
                                                                              
--------------------------------------|
--------------------------------------|
--9--9-9-9-9--9-9-9-9--9-9-9-9--9-9-9-|
--0--0-0-0-0--0-0-0-0--0-0-0-0--0-0-0-|
--0--0-0-0-0--0-0-0-0--0-0-0-0--0-0-0-|
--0-----------------------------------|

--------------------------------------|
--------------------------------------|
--7--7-7-7-7--7-7-7-7--7-7-7-7--7-7-7-|
--0--0-0-0-0--0-0-0-0--0-0-0-0--0-0-0-|
--0--0-0-0-0--0-0-0-0--0-0-0-0--0-0-0-|
--0-----------------------------------|

                                       
--------------------------------------|
--------------------------------------|
--------------------------------------|
--------------------------------------|
--------------------------------------|
--0--0--0--0--0--0--0--0--0--0--0--0--|
PM.  .  .  .  .  .  .  .  .  .  .  .

                                            
|------------<9>-<9>-<9>-<9>-----------------------|
|------------<9>-<9>-<9>-<9>-----------------------|
|*-----------<9>-<9>-<9>-<9>-----------------------|
|*--8--8-8-8-<9>-<9>-<9>-<9>-8--8-8-8/10--10-10-10-|
|---8--8-8-8-----------------8--8-8-8/10--10-10-10-|
|---8--8-8-8-----------------8--8-8-8/10--10-10-10-|


                                         3x (in other words, play this 4 times)
-----------<9>-<9>-<9>-<9>--------------------|
-----------<9>-<9>-<9>-<9>--------------------|
-----------<9>-<9>-<9>-<9>-------------------*|
--5--5-5-5-<9>-<9>-<9>-<9>-5--5-5-5-3--3-3-3-*|
--5--5-5-5-----------------5--5-5-5-3--3-3-3--|
--5--5-5-5-----------------5--5-5-5-3--3-3-3--|


|---------------------------------------|
|---------------------------------------|
|*--9--9-9-9-9--9-9-9-9--9-9-9-9--9-9-9-|
|*--0--0-0-0-0--0-0-0-0--0-0-0-0--0-0-0-|
|---0--0-0-0-0--0-0-0-0--0-0-0-0--0-0-0-|
|---0-----------------------------------|

                                      x2                                          
---------------------------------------|
---------------------------------------|
--7--7-7-7-7--7-7-7-7--7-7-7-7--7-7-7-*|
--0--0-0-0-0--0-0-0-0--0-0-0-0--0-0-0-*|
--0--0-0-0-0--0-0-0-0--0-0-0-0--0-0-0--|
--0------------------------------------|


(My ending. I guess the song really kinda fades out)                     
-------------------||
-------------------||
--7----------------||
--0----------------||
--0----------------||
--0----------------||

Comments about this tab

KingJaymz - 2004-12-20

It's possible that I messed up the verse in terms of which version of the chords are played when, but other than that, it still sounds right to me when I play along with the CD. Hope it helps.


KingJaymz - 2004-12-22

To clarify the harmonic chord in the chorus, it sounds better if your finger is sort of at an angle to the 9th fret, rather than just directly on top of it. So it's kind of like:
-<8.5>-
-<8.5>-
--<9>--
--<9>--


njsk8rboy - 2005-01-17

VERY good except 4 the chorus:
C#----------------------------------------------------------
G#---------12121212--------------------12121212-------------
E-----------------------------------------------------------
B---888----9-9-9-9---888810101055555555-9-9-9-9-55553333----
F#--888--------------888810101055555555---------55553333----
B---888--------------888810101055555555---------55553333----
struming not right


KingJaymz - 2005-03-03

Sorry dude, but my tab's right. Check Mtv.com for a live version of Vitamin R. Check his ring finger as he plays the chorus and you can see that he uses harmonics. Also, the strumming's loose, but it's pretty close.


njsk8rboy - 2005-03-09

ure right but its also harder (for me)


njsk8rboy - 2005-03-14

grrrrrrrrrrrrr u ARE right thnx god bless!


guitarfreaker - 2005-05-11

Do you mean like a chime?


schecterc1lh - 2006-05-25

ACTUALLY ON THE CHOURUS YOU GUYS ARE BOTH RIGHT, LIVE HE USES THE HARMONICS, BUT WHEN HE RECORDED IT HE USED THIS
|
|12
|X
|9
|
|


underoathrocks - 2007-04-06

Why would he play it harder live? Because harmonics are harder than power chords.


Add a comment/correction

Complimentary Christian Ringtones
Dadamobile and CGR have teamed up to bring your favorite Christian artists right to your phone. Sign up today and get 10 complementary ringtones!
Tab Country
Did you know CGR has a sister site w/ country guitar tabs? Well we do! Its called Tab Country. It has a great archive with a lot of country tabs.
Rockin Tabs
Are you looking for a site that has rock guitar tabs? Then Rockintabs.com is the place for you. It is a budding site with many rock guitar tabs. Submit your tab today.
Tab Gallery
Tab Gallery has a compilation of christian, rock, and country tabs all in one place. Come visit us.