Guitar Tabs
song title    band name

Join Us Today!

Don't strum alone...
be a part of the largest online Christian music community. Browse thousands of guitar tabs and chat w/ musicians like yourself.


It's Free!

Audio Adrenaline - Get Down

This tab has been rated a 1.67 out of 5 for accuracy. (6 votes)Sorry, but you must be logged in to rate this tab.
Click here to log-in, or you can click here to register.
(Registration is free)

All songs owned by corresponding publishing company. If you make copies of any song on this website, be sure to report your usage to CCLI.
Song: Get Down (c) 1999 Flicker USA Pub.
Band: Audio A.
Written By: Mark Stuart, Will McGinniss, Bob Herdman,Tyler Burkum 
Transcribed by: Cathy Bond (katia.b@juno.com)

Intro.  D G E D
first time just strum these, secon time use this:

E-----------------3----------|
A----------2-----------------|
D--0-------2-----------------|
G-------2-----------------2-2|
B-----3--------------3----3-3|
A---2--------2--0---3-----0-2|




    D          
Lavishly our lives are wasted
    E 
Humbleness is left untasted
  G                                   D
You can't live your life to please yourself , yeah 
  D  
That's a tip from my mistakes 
    E
Exactly what it doesn't take 
    G                         D
To win you've got to come in last place 
     D                    E
To live your life you've got to lose it 
     G              D
And all the losers get a crown 

CHORUS:
D
I get down and He lifts me up 
E
I get down and He lifts me up 
G
I get down and He lifts me up 
D
I get down 


All I need's another day 
Where I can't seem to get away
From the many things that drag me down, yeah 
I'm sure you've had a day like me 
Where nothing seems to set you free 
From the burdens you can't carry all alone 
In your weakness He is stronger 
In Your darkness He shines through 
When you're crying He's your comfort 
When your all alone, He's carrying you 

CHORUS 

D           E 
This valley is so deep 
 G                    D
I can barely see the sun 
 D            E 
I cry out for mercy, Lord 
  G              D
You lift me up again 
 



CHORDS:

  EADGBE
  ------
D:XX0232
E:022300
G:320003

Comments about this tab

FISLANDQB7 - 2004-11-19

The verse should be:
Bm
Lavishly our lives are wasted
D
Humbleness is left untasted
G D
You can't live your life to please yourself , yeah
Bm
That's a tip from my mistakes
D
Exactly what it doesn't take
G B A
To win you've got to come in last place



FISLANDQB7 - 2004-11-19

THE INTRO SHOULD BE:
E|----2-----------2-0---2-----0-2-|
B|------3---3---3---------3---3-3-|
G|--2-----2---1-------0-----0-2-2-|
D|--------------------------------|
A|--------------------------------|
E|--------------------------------|


faceheadfor god - 2007-02-28

no the intro should be

E------------------------------------
a------------------------------------
d------------------------------------
g-2--------2----1-------0---2--------
b------3------3---3------------------
e---2---------------2-0---2---0h2----

i am 100% sher i got this 1


faceheadfor god - 2007-02-28

sorry this is my 1rst submit so

g-2-------2----1----------0-------2--------------------------
b------3----3-----3------------3----------------------------
e---2----------------2--0----2------0h2------------------------


Leviticus7 - 2008-07-10

This is the intro:
Strum:
D---0---0---0---0
G---2---1---0---2
B---3---3---3---3
E---2---0---2---2

Pick: *
G--2----2----1-------0-----1-2
B-----3--3----3--------3-----3
E---2----------2-0----2------0h2

* - Strum
0h2 - Hammer-on


Leviticus7 - 2008-07-10

D---0----0----0----0
G---2----1----0----2
B---3----3----3----3
E---2----0----2----2

Pick: ------------------------------*
G--2-----2-----1---------0--------1-2
B------3---3-----3---------3--------3
E----2--------------2-0-------2-----0h2

The last post was my first post. Where the * is, that is a strum.


Add a comment/correction

Complimentary Christian Ringtones
Dadamobile and CGR have teamed up to bring your favorite Christian artists right to your phone. Sign up today and get 10 complementary ringtones!
Tab Country
Did you know CGR has a sister site w/ country guitar tabs? Well we do! Its called Tab Country. It has a great archive with a lot of country tabs.
Rockin Tabs
Are you looking for a site that has rock guitar tabs? Then Rockintabs.com is the place for you. It is a budding site with many rock guitar tabs. Submit your tab today.
Tab Gallery
Tab Gallery has a compilation of christian, rock, and country tabs all in one place. Come visit us.